Oops, an error
Loading. Please wait.

Running Across The Tracks tab

version 1
version 1

Whole song

Interactive

23,442 views 69 this week
1 commentread comment
1 2 3 4 5
x 11
add to favorites
×
Save as Personal and add changes to this tab that will be seen only by you. Learn more ›
×
You can save this tab as Personal to edit and correct it or add notes. All changes will be seen only by you. Learn more »
launch autoscroll
font size
0
reset
how to read this tab
guitar tuner
edit
Autoscroll
slow
fast
+/-
esc
set tempo
stop
[Main Riff]
E|--------------------------|
B|--------------------------|
G|--------------------------|
D|-5-77---------2^0-----5/7-|  (x2)
A|-5-77-3^0-5^0-----3^0-----|
D|-5-77---------------------|

E|----------------------------|
B|----------------------------|
G|----------------------------|
D|-2-33-----------------------|  (x2)
A|-2-33-3^0-5^0-6^0-56-5^3^0--|
D|-2-33-----------------------|

[Verse 1]
E|------------|
B|------------|
G|------------|
D|-0----------|
A|-0----5^3^0-|
D|-0----------|

E|------|
B|------|
G|------|
D|-5-77-|  (x2)
A|-5-77-|
D|-5-77-|

E|------------------------------------|
B|------------------------------------|
G|------------------------------------|
D|-2-33----2-33-----------------------|
A|-2-33----2-33-3^0-5^0-6^0-56-5^3^0--|
D|-2-33----2-33-----------------------|

E|--------------------------|
B|--------------------------|
G|--------------------------|
D|-5-77---------2^0-----5/7-|  (x2)
A|-5-77-3^0-5^0-----3^0-----|
D|-5-77---------------------|

E|----------------------------|
B|----------------------------|
G|----------------------------|
D|-2-33-----------------------|
A|-2-33-3^0-5^0-6^0-56-5^3^0--|
D|-2-33-----------------------|

E|--------------------------|
B|--------------------------|
G|--------------------------|
D|-2-33---------------------|
A|-2-33-3^0-5^0-2^3^2^0-----|
D|-2-33-----------------3^2-|

[Bridge]
E|-------|-----------------------------|
B|-6-666-|-----------------------------|
G|-x-xxx-|-----------------------------|
D|-7-777-|-----------------------------|   (x2)
A|-5-555-|-3-3-2-0-2-3-2-0-2-3-2-0-----|
D|-0-000-|-------------------------3^2-|

E|-------|     E|--------------------------------------------|
B|-6-666-|     B|--------------------------------------------|
G|-x-xxx-|     G|--------------------------------------------|
D|-7-777-| (x2)D|-----------------------------2----3----33333|
A|-5-555-|     A|-3-3-2-0-2-3-2-0-2^3-5^3-2^0-2----3----33333|
D|-0-000-|     D|-----------------------------2----3----33333|

[Chorus 1]
E|-------------------------------|
B|8---8--8---8--8---13-13--12-12-|
G|x---x--x---x--x---x--x---x--x--|
D|10--10-10--10-10--10-10--10-10-| (x2)
A|0---0--0---0--0---0--0---0--0--|
D|-------------------------------|

E|-----------------------------------------|
B|-----------------------------------------|
G|-14--14-14-14-14-14---12--12-12-12-12-12-|
D|-10--10-10-10-10-10---10--10-10-10-10-10-|
A|-10--10-10-10-10-10---10--10-10-10-10-10-|
D|-10--10-10-10-10-10---10--10-10-10-10-10-|

E|----------------------12--12-12-12-12-12-|
B|-10--10-10-10-10-10---10--10-10-10-10-10-|
G|-x---x--x--x--x--x----x---x--x--x--x--x--|
D|-10--10-10-10-10-10---10--10-10-10-10-10-|
A|-8---8--8--8--8--8----8---8--8--8--8--8--|
D|-----------------------------------------|

(all of that (x2) an add the last time)
E|-------|
B|-------|
G|-------|
D|-------|
A|-5-3-0-|
D|-------|

[Verse 2]
E|------------|
B|------------|
G|------------|
D|-0----------|
A|-0----5^3^0-|
D|-0----------|

E|------|
B|------|
G|------|
D|-5-77-|  (x2)
A|-5-77-|
D|-5-77-|

E|------------------------------------|
B|------------------------------------|
G|------------------------------------|
D|-2-33----2-33-----------------------|
A|-2-33----2-33-3^0-5^0-6^0-56-5^3^0--|
D|-2-33----2-33-----------------------|

E|--------------------------|
B|--------------------------|
G|--------------------------|
D|-5-77---------2^0-----5/7-|  (x2)
A|-5-77-3^0-5^0-----3^0-----|
D|-5-77---------------------|

E|----------------------------|
B|----------------------------|
G|----------------------------|
D|-2-33-----------------------|
A|-2-33-3^0-5^0-6^0-56-5^3^0--|
D|-2-33-----------------------|

E|--------------------------|
B|--------------------------|
G|--------------------------|
D|-2-33---------------------|
A|-2-33-3^0-5^0-2^3^2^0-----|
D|-2-33-----------------3^2-|

[Bridge]
E|-------|-----------------------------|
B|-6-666-|-----------------------------|
G|-x-xxx-|-----------------------------|
D|-7-777-|-----------------------------|   (x2)
A|-5-555-|-3-3-2-0-2-3-2-0-2-3-2-0-----|
D|-0-000-|-------------------------3^2-|

E|-------|     E|--------------------------------------------|
B|-6-666-|     B|--------------------------------------------|
G|-x-xxx-|     G|--------------------------------------------|
D|-7-777-| (x2)D|-----------------------------2----3----33333|
A|-5-555-|     A|-3-3-2-0-2-3-2-0-2^3-5^3-2^0-2----3----33333|
D|-0-000-|     D|-----------------------------2----3----33333|

[Chorus 2]
E|-------------------------------|
B|8---8--8---8--8---13-13--12-12-|
G|x---x--x---x--x---x--x---x--x--|
D|10--10-10--10-10--10-10--10-10-| (x2)
A|0---0--0---0--0---0--0---0--0--|
D|-------------------------------|

E|-----------------------------------------|
B|-----------------------------------------|
G|-14--14-14-14-14-14---12--12-12-12-12-12-|
D|-10--10-10-10-10-10---10--10-10-10-10-10-|
A|-10--10-10-10-10-10---10--10-10-10-10-10-|
D|-10--10-10-10-10-10---10--10-10-10-10-10-|

E|----------------------12--12-12-12-12-12-|
B|-10--10-10-10-10-10---10--10-10-10-10-10-|
G|-x---x--x--x--x--x----x---x--x--x--x--x--|
D|-10--10-10-10-10-10---10--10-10-10-10-10-|
A|-8---8--8--8--8--8----8---8--8--8--8--8--|
D|-----------------------------------------|

(all of that (x2) an add the last time)
E|-------|
B|-------|
G|-------|
D|-------|
A|-5-3-0-|
D|-------|

[Breakdown]
E|----------------------------------------------------|
B|-10--10-10-10-10-10-10-10-10-10-10-10-10-10-10-10-10|
G|-x---x--x--x--x--x--x--x--x--x--x--x--x--x--x--x--x-|
D|-10--10-10-10-10-10-10-10-10-10-10-10-10-10-10-10-10|
A|-8---8--8--8--8--8--8--8--8--8--8--8--8--8--8--8--8-|
D|----------------------------------------------------|

[Solo]
E|--------------------------------------------------|
B|--------------------------------------------------|
G|--------------------------------------------------|
D|-3~--------10-10-10--7~--------10-10-10-3~--------| and so forth...
A|-3~--------10-10-10--7~--------10-10-10-3~--------|
D|-3~--------10-10-10--7~--------10-10-10-3~--------|

E|------------------------------------------------------|
B|----------------------------------------------8---10\-|
G|-----------------------2^0---5~5~---------789---9-----|
D|---------------2^0---------2-----7^5-7/10-------------|
A|-------3^0-5^0-----3^0--------------------------------|
D|-5-777------------------------------------------------|

E|---------------------------------------------------------|
B|----------------------------------------------8---10~-8--|
G|-----------------------2^0---5~5~---------789---9-------9|
D|---------------2^0---------2-----7^5-7/10----------------|
A|-------3^0-5^0-----3^0-----------------------------------|
D|-5-777---------------------------------------------------|

E|--------------------------------------------------------|
B|----------------------------------------------8---10~10-|
G|-----------------------2^0---5~5~---------789---9-------|
D|---------------2^0---------2-----7^5-7/10---------------|
A|-------3^0-5^0-----3^0----------------------------------|
D|-5-777--------------------------------------------------|

E|--------------------------------------3---5~5-7b8r7-5\3---|
B|----------------------------------345---5---------------5-|
G|-----------------------2^0---5~5~-------------------------|
D|---------------2^0---------2------------------------------|
A|-------3^0-5^0-----3^0------------------------------------|
D|-5-777----------------------------------------------------|

[Interlude]
E|-555555-|
B|--------|
G|--------|
D|--------|
A|--------|
D|--------|

E|-----------------------|
B|-------------10-10-10~-|
G|-------------x--x--x---|
D|-333~--------10-10-10~-| (x2)
A|-333~--------0--0--0~--|
D|-333~------------------|

E|-----------------------------------------------------|
B|---------------------------------------6------10-----|
G|---------------------------------------x------x------|
D|-------3----10-10-10-7--7----10-10-10--7-x16--10-x16-|
A|-23532-3x36-10-10-10-7--7x32-10-10-10--5------8------|
D|-------3----10-10-10-7--7----10-10-10----------------|
                                       
[Solo]
E|--------------------|
B|-10--10-10-10-10-10-|
G|-x---x--x--x--x--x--|
D|-10--10-10-10-10-10-| (x2)
A|-0---0--0--0--0--0--|
D|--------------------|

E|---------------------------|
B|10-10--9--9---10-10--10-10-|
G|x--x---x--x---x--x---x--x--|
D|10-10--10-10--10-10--10-10-|
A|0--0---x--x---x--x---7--7--|
D|-------9--9---10-10--------|

E|-----------------------------------------------------|
B|8---8--8---8--8---13-13--12-12--8---8--8---8--8---13-|
G|x---x--x---x--x---x--x---x--x---x---x--x---x--x---x--|
D|10--10-10--10-10--10-10--10-10--10--10-10--10-10--10-|
A|0---0--0---0--0---0--0---0--0---0---0--0---0--0---0--|
D|-----------------------------------------------------|

[Chorus 3]
E|-------------------------------|
B|8---8--8---8--8---13-13--12-12-|
G|x---x--x---x--x---x--x---x--x--|
D|10--10-10--10-10--10-10--10-10-| (x2)
A|0---0--0---0--0---0--0---0--0--|
D|-------------------------------|

E|-----------------------------------------|
B|-----------------------------------------|
G|-14--14-14-14-14-14---12--12-12-12-12-12-|
D|-10--10-10-10-10-10---10--10-10-10-10-10-|
A|-10--10-10-10-10-10---10--10-10-10-10-10-|
D|-10--10-10-10-10-10---10--10-10-10-10-10-|

E|----------------------12--12-12-12-12-12-|
B|-10--10-10-10-10-10---10--10-10-10-10-10-|
G|-x---x--x--x--x--x----x---x--x--x--x--x--|
D|-10--10-10-10-10-10---10--10-10-10-10-10-|
A|-8---8--8--8--8--8----8---8--8--8--8--8--|
D|-----------------------------------------|

(all of that (x2) an add the last time)
E|-------|
B|-------|
G|-------|
D|-------|
A|-5-3-0-|
D|-------|

E|----------------------------------------------------|
B|-10--10-10-10-10-10-10-10-10-10-10-10-10-10-10-10-10|
G|-x---x--x--x--x--x--x--x--x--x--x--x--x--x--x--x--x-|
D|-10--10-10-10-10-10-10-10-10-10-10-10-10-10-10-10-10|
A|-8---8--8--8--8--8--8--8--8--8--8--8--8--8--8--8--8-|
D|----------------------------------------------------|

[Ending]
E|----------------|
B|----------------|
G|----------------|
D|-----------5-77-|
A|-5-6-5-3-0-5-77-|
D|-----------5-77-|


************************************

| /  Slide up
| ~  Vibrato
| \  Slide down
| r  Release
| b  Bend
| x  Dead note

************************************

            
            
Suggest correction
Creating personal tab
Creating personal tab
You can edit any tab online and save it as your Personal.

You can edit, replace or remove any tab part or add personal notes – all changes will be seen only by you.

Personal tabs can be accessed anytime from any device, even offline.
Learn more »
comments
print report bad tab
1 comment total.
0 reply
lg187 2,641 May 13, 2014 02:16 AM

Couple corrections:

Interlude:

e|-----5-555-555-----------------------------------
B|----------------------------10-101010-101010-------
G|-----------------etc---------------------------etc
D|3~~~~~~~~~~~~--------7~~~~~~~~----------------------
A|3~~~~~~~~~~~~~-------7~~~~~~~~~~~------------------
D|3~~~~~~~~~~~~~~~~----7~~~~~~~~~~~----------2x--------

The break thing above chorus 3:

e|000000---8--8---7--7---0-00000--8-----------------------------
B|888888--10-10--10-10---8-88888-10-------------------------------------------
G|999999---9--9---9--9---9-99999--9----------------------------
D|777777---7--7---7--7---7-77777--7----------------------------
A|---------------------------------------------

guest
You may want to rate the tab now too:
select rating
Wanna post a correction for this tab? Suggest correction