Oops, an error
Loading. Please wait.

Rusted From The Rain Bass Tab

version 1
version 1
68,854 views 66 this week
14 commentsread comments
1 2 3 4 5
x 17
add to favorites
launch autoscroll
font size
0
reset
guitar tuner
backing track
0:00
0:00
×
Best way to learn
"Rusted From The Rain"
Autoscroll
slow
fast
+/-
esc
set tempo
stop
Tabbed by tony d

[Intro:2x]
G|---------------------------------|
D|---------------------------------|
A|---------0-0-2-0-----0-----------|
D|-2-2-4-6---------5-5---5-0-2-4-0-|

[Verse:3x]
G|--------------------------|
D|--------------------------|
A|-----0-0-2-0--------------|
D|-2-2---------5-5--0-2-4-0-|

[Pre-Chorus:1x]
G|-------------------------------------------------------------|
D|-------------5-4-------------5-4--------------5-4------------|
A|-3-3-3-3-3-3-----0-0-0-0-0-0-----3-3-3-3-3-3-----5-5-5-5-5-5-|
D|-------------------------------------------------------------|

[Chorus:4x                  Play After 4x]
G|--------------------------|----------------------------|
D|--------------------------|------------5-4-------------|
A|-----0---0-2--------------|3-3-3-3-3-3-----5-5-5-5-5-5-|
D|-2-2---5-----5-5--0-0-0-0-|----------------------------|

[Post-Chorus: Play Intro 2x]

[Verse:3x]
[Pre-Chorus:3x]
[Chorus:4x]

[Bridge:1x]
G|-------------------------------------------|
D|-------------------------------------------| Play 2x
A|-7-7-7-5-5-5-3--3-3-3-0-0-0-3--3-3-3-5-5-5-| 
D|-------------------------------------------|

G|----------------------------------------------------------------|
D|-------------5-4--------------5-4--------------5-4--------------|
A|-33333333333-----000000000000-----333333333333-----555555555555-|
D|----------------------------------------------------------------|

G|--------------------------------------------------------|
D|--------------5-4--------------121212121212121212121212-|
A|-333333333333-----555555555555--------------------------|
D|--------------------------------------------------------|

[Play Chorus:4x]

[Ending:1x]
G|----------------------------------------------------------------------|
D|----------------------------------------------------------------------|
A|-----0---0-2--------------7-77-5-55-4-44-3-33-22-0---0-2--------------|
D|-2-2---5-----5-5--0-0-0-0--------------------------5-----5-5--0-0-0-0-|

G|----------------------------------------------------------------|
D|-------------5-4--------------5-4--------------5-4--------------| Play 2x
A|-33333333333-----555555555555-----333333333333-----555555555555-|
D|----------------------------------------------------------------|

G|---------|
D|---------|
A|---------|
D|-2(ring)-|

************************************

| (ring) 

************************************
Suggest correction
comments
print report bad tab
14 comments total. Showing first comments.
+3 reply
Gu!TaR PRo 194 May 15, 2009 02:18 PM

Wow, this was fast =)..
Although I think the first part in the bridge should go like:

G----------------------------------------------|
D----------------------------------------------| Play 2x
A-------------3--3-3-3-0-0-0-3--3-3-3-5-5-5----|
D-2-2-2-0-0-0-------------------------------2--|

Good tab =)

+1 reply
Kopfmatsch 10 Jul 01, 2009 09:49 PM

not bad but some inaccuracies

+3 reply
jaypro 10 Jul 22, 2009 09:55 AM

after the brigde it goes like this

G----------------------------------------------------------------|
D------------55-44------------55-44-----------55-44--------------|
E-33333333333------00000000000-----33333333333-----555555555555--|
D----------------------------------------------------------------|

guest
You may want to rate the tab now too:
select rating
Wanna post a correction for this tab? Suggest correction