Oops, an error
Loading. Please wait.

Rusted From The Rain Tab

version 1
version 1

Interactive

Video

256,834 views 243 this week
7 commentsread comments
1 2 3 4 5
accurate
x 32
add to favorites
launch autoscroll
font size
0
reset
how to read this tab
guitar tuner
Autoscroll
slow
fast
+/-
esc
set tempo
stop
Help us to improve Ultimate-Guitar.com Take our survey!
×
Author
-------------------------------------------------------------------------------
                          Rusted From The Rain-Billy Talent
-------------------------------------------------------------------------------
Tabbed by:brokenunder
Email:tears--dont--fall@hotmail.co.uk

Tuning: Drop D

this should all be right  comment and rate :)


[Intro] (thanks to marcus)

e|-----0------0-------0------------------------------------------------------|
B|-----5------5-------5------------------------------------------------------|
G|---4--4---6--6-----4--4---------------------------X3-----------------------|
D|-2-------7--------5---------0-0--------------------------------------------|
A|----------------------------5-7-9-5----------------------------------------|
E|---------------------------------------------------------------------------|


[Prechorus]
thanks to a1w2a3g4

e|------0-------0-------0-----0-------0-------0------0000---------------|
B|------5-------5-------5-----5-------5-------5------5555---------------|
G|------4-------4-------4-----4-------4-------4------4444---------------|
D|----2---2---2--2----4--4--4--4-----2--2----2--2----4444---------------|
A|--3-------3--------5-----5--------3-------3--------5555etc------------|
D|----------------------------------------------------------------------|

then when the bass and drums come in the guitar just plays the first part of the intro again


[Verse]

e|---------------------0-------0-------0-------------------------------------|
B|-5------5------------5-------5-------5-------------------------------------|
G|-4------4----------4--4----6--6----4--4------------------------------------|
D|-2------2--------2--------7-------5----------------------------------------|
A|--------------------------------------------------------------------------|
E|---------------------------------------------------------------------------|


[Prechorus]

e|------0---------------0--------------0-------------------------------------|
B|------5---------------5--------------5-------------------------------------|
G|------4-------4b5r4---4-----4b5r4----4-------4b5r4--2222-------------------|
D|----2---2---2--------2--2--2--------2--2----2-------0000-------------------|
A|--3-------3---------0-----0--------3-------3--------5555etc----------------|
D|---------------------------------------------------------------------------|
Update: the last chord at the end of this pre chorus didnt sound right so 
i changed it and this sounds more accurate even tho its a wierd chord.
any other suggestions welcome


[Chorus]

e|---------------------------------------------------------------------------|
B|--5----------------------------------5--------5----------------------------|
G|--4----------------------------------4--X16---5--X16-----------------------|
D|--22-757955-0240---------------------2--------2----------------------------|
A|--22-757955-0000----X3--------------(3)------------------------------------|
E|--22-757955-0000-----------------------------------------------------------|


Intro

Verse


[Chorus]

e|---------------------------------------------------------------------------|
B|--5----------------------------------5--------5---------5-------5----------|
G|--4----------------------------------4--X16---5--X16----4-X16---5----------|
D|--22-757955-0240---------------------2--------2---------2-------2----------|
A|--22-757955-0000----X3--------------(3)----------------(3)-----------------|
E|--22-757955-0000-----------------------------------------------------------|


[Solo]

e|----------|----------------------------------------------------------------|
B|----------|----5-3---------------------------------------------------------|
G|---0-2-4--|--------5-4h5p4-2h4p2-0---0h2h4-5p4p2h4-0---0h2h4-5p4p2h4-4-----|
D|-2--------|-----------------------2h4---------------2h4----------------X2--|
A|----------|----------------------------------------------------------------|
E|----------|----------------------------------------------------------------|

e|--------------------------|------------------------------------------------|
B|---3303-5535-7757530------|-3303-5535-775787530-X3-------------------------|
G|--------------------------|------------------------------------------------|
D|--------------------------|------------------------------------------------|
A|--------------------------|------------------------------------------------|
E|--------------------------|------------------------------------------------|

on this last bit there is an overlap i think where 1 guitar plays the bit above while 
other guitar plays this bit below
e|---------------------------------------------------------------------------|
B|-3303-5535-7757-8878-1010810-12121012-13131213-15151315-17~----------------|
G|---------------------------------------------------------------------------|
D|---------------------------------------------------------------------------|
A|---------------------------------------------------------------------------|
E|---------------------------------------------------------------------------|


[Chorus]


[Outro] guitar bits played over the normal chorus

e|---------------------------------------------------------------------------|
B|---------------------------------------------------------------------------|
G|---------------------------------------------------------------------------|
D|-------------------------then-------2~-2h4p0h2-----------------------------|
A|---7~-5~-4~-3~-2~----------------------------------------------------------|
E|---------------------------------------------------------------------------|

ends on

e|---------------------------------------------------------------------------|
B|---------------------------------------------------------------------------|
G|-----0-2-4----9~-----------------------------------------------------------|
D|---2----------9~-----------------------------------------------------------|
A|--------------7~-----------------------------------------------------------|
E|---------------------------------------------------------------------------|

***************************

| /  slide up
| \  slide down
| h  hammer-on
| p  pull-off
| ~  vibrato
| +  harmonic
| x  Mute note

***************************
Suggest correction
comments
print report bad tab
7 comments total. Showing first comments.
+2 reply
a1w2a3g4 10 wrote on May 21 2009, 08:15 am

hey good tab! bt i would change the intro and pre chorus into that:

Intro Then
e|-----0------0-------0------------------0-----0-----0------0-------|
B|-----0------0-------0------------------0-----0-----0------0-------|
G|---0--0---6---6---4---4---------x3-----0-----0-----0------0-------|
D|-2------7-------5-------0-2-4-0------2---2---2---4---4---4--4-----|
A|-----------------------------------3-------3---5-------5-----5----|
D|------------------------------------------------------------------|

the pre chorus:

e|------0------0---------0------0----------0-------0---------0------0---|
B|------0------0---------0------0----------0-------0---------0------0---|
G|------0------4h5-4-----0------4h5-4------0-------4h5-4-----0------0---|
D|----2---2---2----2---2---2---2-----2---2---2---2-----2---4---4---4--4-|
A|--3-------3--------0-------0---------3-------3---------5-------5------|
D|----------------------------------------------------------------------|

I think it should be fine like that :)

0 reply
iWannaRok 10 wrote on July 7 2009, 07:26 pm

Its pretty good with the help of a1w2a3q4 but the only slight thing is when you repeat you forgot to put in prechorus again

0 reply
Guitarist94 10 wrote on July 20 2009, 07:49 pm

haha right on bro. it was pretty accurate

guest
You may want to rate the tab now too:
select rating
Wanna post a correction for this tab? Suggest correction