Oops, an error
Loading. Please wait.

Rusted From The Rain Bass Tab

version 2
version 2
5,977 views 1 this week
1 commentread comment
1 2 3 4 5
x 3
add to favorites
launch autoscroll
font size
0
reset
guitar tuner
×
Best way to learn
"Rusted From The Rain"
Autoscroll
slow
fast
+/-
esc
set tempo
stop
Author
Difficulty
Tuning
  follow
intermediate
D A D G
Tuning Drop D
This is basically 100% right

Bass doesn't come in until 0:23

0:23
G|---------------------------------|
D|---------------------------------|
A|---------0-0-2-0-----0-----------|
D|-2-2-4-6---------5-5---5-0-2-4-0-| x2


0:34 - dissect me...
G|---------------------------------|
D|---------------------------------|
A|---------0-0-2-0-----------------|
D|-2---2-----------5---5---0-2-4-0-| x3


0:50 - don't feel any pain...
G|-------------------------------------------|
D|--------------4h5p4p0--------------4h5p4p0-|
A|-333333333333---------000000000000---------|
D|-------------------------------------------|

G|---------------------------------------|
D|--------------4h5p4p0------------------|
A|-333333333333---------5555555555555555-|
D|---------------------------------------|


1:01 - come on crush...
G|---------------------------|
D|---------------------------|
A|------0---0-2--------------|
D|-2--2---5-----5--5-0-2-4-0-| x3

1:17 - I'm rusted...
G|---------------------------------------|
D|--------------4h5p4p0------------------|
A|-333333333333---------5555555555555555-|
D|---------------------------------------|

1:23
G|---------------------------------|
D|---------------------------------|
A|---------0-0-2-0-----0-----------|
D|-2-2-4-6---------5-5---5-0-2-4-0-| x2

1:34 - you hung me...
G|---------------------------------|
D|---------------------------------|
A|---------0-0-2-0-----------------|
D|-2---2-----------5---5---0-2-4-0-| x3

1:50 - left here to...
G|-------------------------------------------|
D|--------------4h5p4p0--------------4h5p4p0-|
A|-333333333333---------000000000000---------|
D|-------------------------------------------|

G|---------------------------------------|
D|--------------4h5p4p0------------------|
A|-333333333333---------5555555555555555-|
D|---------------------------------------|

2:01 - come on crush...
G|---------------------------|
D|---------------------------|
A|------0---0-2--------------|
D|-2--2---5-----5--5-0-2-4-0-| x3

2:18 - I'm rusted...
G|-------------------------------------------|
D|--------------4h5p4p0--------------4h5p4p0-|
A|-333333333333---------555555555555---------|
D|-------------------------------------------|

G|-----------------------------------|
D|--------------4h5p4p0--------------|
A|-333333333333---------555555555555-|
D|-----------------------------------|

2:29
G|-------------------------------------------------------|
D|-------------------------------------------------------|
A|-7--7-7-77-5--5-5-55-3--3-3-33-0-0000-3--3-3-33-5-5555-|
D|-------------------------------------------------------| x2

2:45
G|-------------------------------------------|
D|--------------4h5p4p0--------------4h5p4p0-|
A|-333333333333---------000000000000---------|
D|-------------------------------------------|

G|-------------------------------------------|
D|--------------4h5p4p0--------------4h5p4p0-|
A|-333333333333---------555555555555---------|
D|-------------------------------------------|

G|-------------------------------------------|
D|--------------4h5p4p0-------------12121212-|
A|-333333333333---------555555555555---------|
D|-------------------------------------------| (those are "12" not "1"and"2")

3:02 - come on crush...
G|---------------------------|
D|---------------------------|
A|------0---0-2--------------|
D|-2--2---5-----5--5-0-2-4-0-| x3

3:18 - I'm rusted...
G|---------------------------------------|
D|--------------4h5p4p0------------------|
A|-333333333333---------5555555555555555-|
D|---------------------------------------|

3:24 - come on crush...
G|---------------------------|
D|---------------------------|
A|------0---0-2--------------|
D|-2--2---5-----5--5-0-2-4-0-|

G|---------------------------------------------------|
D|---------------------------------------------------|
A|-7--7--5--5--4--4--3--3--2--2-0---0-2--------------|
D|--------------------------------5-----5--5-0-2-4-0-|

3:40 - I'm rusted...
G|-------------------------------------------|
D|--------------4h5p4p0--------------4h5p4p0-|
A|-333333333333---------555555555555---------|
D|-------------------------------------------| x3

G|----------------------------------------|
D|--------------4h5p4p0-------------------|
A|-333333333333---------55555555555-------|
D|-------------------------------------2~-|
Suggest correction
Give kudos to tab author, rate the tab!
1 2 3 4 5
comments
print report bad tab
1 comment total.
0 reply
arcticsandmonke 10 Oct 20, 2009 08:01 PM

solid tab.

to make the part easier with the 12's on the third string instead of playing 5's before it play open?

guest
You may want to rate the tab now too:
select rating
Wanna post a correction for this tab? Suggest correction