Oops, an error
Loading. Please wait.
We have an official Rusted From The Rain tab made by UG professional guitarists. Check out the tab »
×
21,200 views 9 this week
2 commentsread comments
1 2 3 4 5
x 4
add to favorites
×
Save as Personal and add changes to this tab that will be seen only by you. Learn more ›
×
You can save this tab as Personal to edit and correct it or add notes. All changes will be seen only by you. Learn more »
launch autoscroll
font size
0
reset
how to read this tab
guitar tuner
backing track
0:00
0:00
edit
Autoscroll
slow
fast
+/-
esc
set tempo
stop
Author
-------------------------------------------------------------------------------
                             RUSTED FROM THE RAIN - Billy Talent
-------------------------------------------------------------------------------
Tabbed by: aRAGman
Email: michaelhelmstedt@hotmail.com

(edited 3/6/09)

Tuning: Drop D (DADGBe)

Verse 1:
e|--0----0-----0------------------|
B|-0-----0-----0------------------|
G|------6-----4-------------------|
D|2--2-7--7--5--5-0-2-4--0---x3---|
A|--------------------------------|
D|--------------------------------|

e|--0---0---0-----------------|
B|--0---0---0-----------------|
G|--0---0---0-----------------|
D|-2-2-2-2-4-4----------------|
A|3---3---5---5---------------|
D|----------------------------|

pre-verse/interlude:
e|--0----0-----0-----------------|
B|-0-----0-----0-----------------|
G|------6-----4------------------|
D|2--2-7--7--5--5-0-2-4-0---x2---|
A|-------------------------------|
D|-------------------------------|

Verse
e|0---------000-------00--0----0----0--------------|
B|0---------000-------00-0-----0----0--------------|
G|0---------000-------00------6----4---------------|
D|2---------222-------222--2-7--7-5--5-0-2-4-0-----|
A|-------------------------------------------------|
D|-------------------------------------------------|

e|--0-----------0-------------0------------0-00000000000000--|
B|--0-----------0-------------0------------0-00000000000000--|
G|--0---4b5r4---0----4b5r4----0---4b5r4----0-00000000000000--|
D|-2-2-2-------4-4-----------2-2-2---------2-22222222222222--|
A|3---3-------5---5---5-----3---3-----------(^  14 times  ^)-|
D|-----------------------------------------------------------|

(4b5r4 means hit 4th fret, bend up semitone (same note as 5th), bend back to 4th)

e|0-0-----------3-3---------2---------0--------0-------------------------|
B|0-0-----------3-3---3-3-3-2---------0--------0-------------------------|
G|--------------------2-2-2-----------0--x16---0-x16---------------------|
D|2-2---7-5-7-9-5-5---0-0-0-4---------2--------4-------------------------|
A|2-2---7-5-7-9-5-5---0-0-0-4---------3--------5-------------------------|
D|2-2---7-5-7-9-5-5---0-0-0-4-----x3-------------------------------------|

pre-verse/interlude:
e|--0----0-----0--------------|
B|-0-----0-----0--------------|
G|------6-----4---------------|
D|2--2-7--7--5--5-0240---x2---|
A|----------------------------|
D|----------------------------|
Verse
e|0---------000-------00--0----0----0--------------|
B|0---------000-------00-0-----0----0--------------|
G|0---------000-------00------6----4---------------|
D|2---------222-------222--2-7--7-5--5-0-2-4-0-----|
A|-------------------------------------------------|
D|-------------------------------------------------|

e|--0-----------0-------------0------------0-00000000000000--|
B|--0-----------0-------------0------------0-00000000000000--|
G|--0---4b5r4---0----4b5r4----0---4b5r4----0-00000000000000--|
D|-2-2-2-------4-4-----------2-2-2---------2-22222222222222--|
A|3---3-------5---5---5-----3---3-----------(^  14 times  ^)-|
D|-----------------------------------------------------------|

Chorus
e|0-0-----------3-3---------2---------0--------0-------0------0------------|
B|0-0-----------3-3---3-3-3-2---------0--------0-------0------0------------|
G|--------------------2-2-2-----------0--x16---0-x16---0-x16--0--x10-------|
D|2-2---7-5-7-9-5-5---0-0-0-4---------2--------4-------2------4------------|
A|2-2---7-5-7-9-5-5---0-0-0-4---------3--------5-------3------5------------|
D|2-2---7-5-7-9-5-5---0-0-0-4-----x3---------------------------------------|

Solo
e|---------------------------------------------------------------------------------------|
B|--------0----5-3-----------------------------------------------------------------------|
G|----0h2---------5-4-5-4-2-4-2-------------2-4-5-4-2-4~-------------2-4-5-4-2-4-4~------|
D|--2----------------------------5~-5-2-4-5---------------5~-5-2-4-5---------------------|
A|---------------------------------------------------------------------------------------|
D|---------------------------------------------------------------------------------------|

e|-----------------------------------------------------------------------------|
B|--5-3------------------------------------------------------------------------|
G|------5-4-5-4-2-4-2-------------2-4-5-4-2-4~------------2-4-5-4-2--2-4-5-----|
D|---------------------5~-5-2-4-5--------------5~-5-2-4-5-----------5----------|
A|-----------------------------------------------------------------------------|
D|-----------------------------------------------------------------------------|

e|------------------------------------|
B|-3-3-0-3-5-5-3-5-7-7-8-7-5-3-0-1----|
G|------------------------------------|
D|------------------------------------|
A|------------------------------------|
D|---------------------------------x4-|

e|---------------------------------------------------------------------------------------|
B|-3-3-0-3-5-5-3-5-7-7-5-7-8-8-7-8-10-10-8-10-12-12-10-12-13~13-12-13-15-15-13-15-17~----|
G|---------------------------------------------------------------------------------------|
D|---------------------------------------------------------------------------------------|
A|---------------------------------------------------------------------------------------|
D|---------------------------------------------------------------------------------------|

Chorus (starts same beat as last note of solo)
e|0-0-----------3-3---------2---------0--------0-------------------------|
B|0-0-----------3-3---3-3-3-2---------0--------0-------------------------|
G|--------------------2-2-2-----------0--x16---0-x16---------------------|
D|2-2---7-5-7-9-5-5---0-0-0-4---------2--------4-------------------------|
A|2-2---7-5-7-9-5-5---0-0-0-4---------3--------5-----9/------------------|
D|2-2---7-5-7-9-5-5---0-0-0-4-----x3-------------------------------------|

outro
e|0-0-----------3-3---------2-----------------------------------------------|
B|0-0-----------3-3---3-3-3-2-----------------------------------------------|
G|--------------------2-2-2-------------------------------------------------|
D|2-2---7-5-7-9-5-5---0-0-0-4-----------------------------------------------|
A|2-2---7-5-7-9-5-5---0-0-0-4-----------------------------------------------|
D|2-2---7-5-7-9-5-5---0-0-0-4-----------------------------------------------|

e|---------------------------------------------3--3--------2--|
B|---------------------------------------------3--3--3-3-3-2--|
G|---------------------------------------------------2-2-2----|
D|-------------------------------------7-5-7-9-5--5--0-0-0-4--|
A|---7~---5~-5h7p5--4~----3~-----2~----7-5-7-9-5--5--0-0-0-4--|
D|-------------------------------------7-5-7-9-5--5--0-0-0-4--|

e|---------------------------------------------------------------------------|
B|---------------------------------------------------------------------------|
G|---------------------------------------------------------------------------|
D|-2-x12-4h5p4p0-------------------------------------------------------------|
A|--------------------x7-----------------------------------------------------|
D|---------------------------------------------------------------------------|

e|-----------------0----------------------------------------------------------|
B|--------------0--0----------------------------------------------------------|
G|-----------0h2--------------------------------------------------------------|
D|-2-x10----2------2----------------------------------------------------------|
A|-----------------2----------------------------------------------------------|
D|-----------------2----------------------------------------------------------|



ALTERNATIVE CHORUSES
the chorus in the tab above is the tab i chose to be correct, after listening closely. 
up your own mind, here is some different versions

Chorus alt 1
e|0-0-----------3-3---------------------------------------------------|
B|0-0-----------3-3---------------------------------------------------|
G|--------------------------------------------------------------------|
D|2-2---7-5-7-9-5-5---0-2-4-0-----------------------------------------|
A|2-2---7-5-7-9-5-5---0-2-4-0-----------------------------------------|
D|2-2---7-5-7-9-5-5---0-2-4-0-----------------------------------------|

Chorus alt 2
e|0-0-----------3-3---------------------------------------------------|
B|0-0-----------3-3---------------------------------------------------|
G|--------------------------------------------------------------------|
D|2-2---7-5-7-9-5-5---4-5-4-0-----------------------------------------|
A|2-2---7-5-7-9-5-5---4-5-4-0-----------------------------------------|
D|2-2---7-5-7-9-5-5---4-5-4-0-----------------------------------------|

Bass Line through verse
G------------------------------------|
D------------------------------------|
A------------------------------------|
D-2-2-4-6-7-7-9-7-5-5-7-5-0-2-4-0----|


OR
G--------------------------------|
D--------------------------------|
A---------0-0-2-0-----0----------|
D-2-2-4-6---------5-5--5-0-2-4-0-|

| /  slide up
| \  slide down
| h  hammer-on
| p  pull-off
| ~  vibrato
| +  harmonic
| x  Mute note
| b  Bend
| r  Release bend
===============================================================================

            
            
Suggest correction
Creating personal tab
Creating personal tab
You can edit any tab online and save it as your Personal.

You can edit, replace or remove any tab part or add personal notes – all changes will be seen only by you.

Personal tabs can be accessed anytime from any device, even offline.
Learn more »
comments
print report bad tab
2 comments total.
0 reply
landte 10 Jun 26, 2009 10:22 AM

Hi aRAGman!

Today I played your version again and maybe it is possible to play it like this...

Verse 2
e|------------------------0----0----0--------------|
B|5---------555-------55-0-----0----0--------------|
G|4---------444-------44------6----4---------------|
D|2---------222-------222--2-7--7-5--5-0-2-4-0-----|
A|-------------------------------------------------|
D|-------------------------------------------------|

e|--0-----------0-------------0------------0-00000000000000--|
B|--0-----------0-------------0------------5-55555555555555--|
G|--0---4b5r40--0----4b5r40---0---4b5r40---5-55555555555555--|
D|-2-2-2-------4-4-----------2-2-2---------4-44444444444444--|
A|3---3-------5---5---5-----3---3----------5-55555555555555--|
D|-----------------------------------------------------------|

(4b5r4 means hit 4th fret, bend up semitone (same note as 5th), bend back to 4th and pull off)

Chorus
e|0-0-----------3-3-------------------------------------------------|
B|0-0-----------3-3---3-3-3-----------5-------5-------5------5------|
G|--------------------2-2-2-----------4-------5-------4------5------|
D|2-2---7-5-7-9-5-5---0-0-4-0-2-------2-------4-------2------4------|
A|2-2---7-5-7-9-5-5---0-0-4-0-2-------3-------5-------3------5------|
D|2-2---7-5-7-9-5-5---0-0-4-0-2---x3---------------------------------------|

Solo
e|------------------------------------|
B|-3-3-0-3-5-5-3-5-7-7-5-7-8-7-0-1----|
G|------------------------------------|
D|------------------------------------|
A|------------------------------------|
D|---------------------------------x4-|

i´m not really sure, but thank you to inspire me to play this song with my band.
michael helmstedt ...it sounds german...greetings from germany!
landte

0 reply
landte 10 Jun 26, 2009 10:25 AM

Hi aRAGman!

Today I played your version again and maybe it is possible to play it like this...

Verse 2
e|------------------------0----0----0--------------|
B|5---------555-------55-0-----0----0--------------|
G|4---------444-------44------6----4---------------|
D|2---------222-------222--2-7--7-5--5-0-2-4-0-----|
A|-------------------------------------------------|
D|-------------------------------------------------|

e|--0-----------0-------------0------------0-00000000000000--|
B|--0-----------0-------------0------------5-55555555555555--|
G|--0---4b5r40--0----4b5r40---0---4b5r40---5-55555555555555--|
D|-2-2-2-------4-4-----------2-2-2---------4-44444444444444--|
A|3---3-------5---5---5-----3---3----------5-55555555555555--|
D|-----------------------------------------------------------|

(4b5r4 means hit 4th fret, bend up semitone (same note as 5th), bend back to 4th and pull off)

Chorus
e|------------------------------------------------------------------|
B|--------------------3-3-3-----------5-------5-------5------5------|
G|--------------------2-2-2-----------4-------5-------4------5------|
D|2-2---7-5-7-9-5-5---0-0-4-0-2-------2-------4-------2------4------|
A|2-2---7-5-7-9-5-5---0-0-4-0-2-------3-------5-------3------5------|
D|2-2---7-5-7-9-5-5---0-0-4-0-2---x3--------------------------------|

Solo
e|------------------------------------|
B|-3-3-0-3-5-5-3-5-7-7-5-7-8-7-0-1----|
G|------------------------------------|
D|------------------------------------|
A|------------------------------------|
D|---------------------------------x4-|

i´m not really sure, but thank you to inspire me to play this song with my band.
michael helmstedt ...it sounds german...greetings from germany!
landte

guest
You may want to rate the tab now too:
select rating
Wanna post a correction for this tab? Suggest correction