Oops, an error
Loading. Please wait.

Rusted From The Rain Bass Tab

version 3
version 3

Whole song

Interactive

5,507 views 1 this week
1 commentread comment
1 2 3 4 5
please rate
add to favorites
launch autoscroll
font size
0
reset
guitar tuner
Autoscroll
slow
fast
+/-
esc
set tempo
stop
Help us to improve Ultimate-Guitar.com Take our survey!
×
Author
-------------------------------------------------------------------------------
			     RUSTED FROM THE RAIN - BILLY TALENT
-------------------------------------------------------------------------------

Tabbed By : Justin Kane
e-mail: Justin_Kane6049@Hotmail.com

Tuning: Drop D

Intro
G|---------------------------------| x2
D|---------------------------------|
A|----------0-0-2-0-----0----------|
D|--2-2-4-6---------5-5---5-0-2-4-0|

Verse
G|-------------------------| x3
D|-------------------------|
A|------0-2-4-0------------|
D|--2-2---------5-5-0-2-4-0|

Pre-Chorus
G|-------------------------------------------------------------|
D|--------------5-4-------------5-4-------------5-4------------|
A|--3-3-3-3-3-3-----5-5-5-5-5-5-----3-3-3-3-3-3-----5-5-5-5-5-5|
D|-------------------------------------------------------------|

Chorus
G|-------------------------| x3
D|-------------------------|
A|------0-0-2--------------|
D|--2-2--5----5-5-0-2-4-0--|

G|---------------------------------------|
D|--------------55-44---------------55-44|
A|--3-3-3-3-3-3---------5-5-5-5-5-5------|
D|---------------------------------------|

Post-Chorus
G|---------------------------------| x2
D|---------------------------------|
A|----------0-0-2-0-----0----------|
D|--2-2-4-6---------5-5---5-0-2-4-0|

Verse
G|-------------------------| x3
D|-------------------------|
A|------0-2-4-0------------|
D|--2-2---------5-5-0-2-4-0|

Pre-Chorus
G|-------------------------------------------------------------|
D|--------------5-4-------------5-4-------------5-4------------|
A|--3-3-3-3-3-3-----5-5-5-5-5-5-----3-3-3-3-3-3-----5-5-5-5-5-5|
D|-------------------------------------------------------------|

Chorus
G|-------------------------| x3
D|-------------------------|
A|------0-0-2--------------|
D|--2-2--5----5-5-0-2-4-0--|

G|-------------------------------------------------------------------|
D|--------------55-44-------------55-44-------------55-44------------|
A|--3-3-3-3-3-3-------5-5-5-5-5-5-------3-3-3-3-3-3---------5-5-5-5-5|
D|-------------------------------------------------------------------|

===================================================================================================

Solo
G|----------------------------------------------------------------------------------|
D|----------------------------------------------------------------------------------|
A|--7-7-7-7\5-555-3-3-3-5-555-3-3-3-5-555-7-7-7-5-5555-3-3-3-3-5-555-3-333--5-55-5-5|
D|----------------------------------------------------------------------------------|

G|-----------------------------------------------------------------------------------------------|
D|-----------55-44-----------55-44-----------55-44-----------55-44-----------55-44---------------|
A|--33333333-------555555555-------333333333-------555555555------333333333------555555555/14(x9)|
D|-----------------------------------------------------------------------------------------------|

===================================================================================================

Chorus
G|-------------------------| x3
D|-------------------------|
A|------0-0-2--------------|
D|--2-2--5----5-5-0-2-4-0--|

G|-------------------------------------------|
D|------------------55-44---------------55-44|
A|--3-3-3-3-3-3-3-3-------5-5-5-5-5-5-5-5----|
D|-------------------------------------------|

G|-------------------------| x3
D|-------------------------|
A|------0-0-2--------------|
D|--2-2--5----5-5-0-2-4-0--|

G----------------------------------------------------------------|
D-------------5-4--------------5-4--------------5-4--------------| x2
A-33333333333-----555555555555-----333333333333-----555555555555-|
D----------------------------------------------------------------|

G---|
D---|
A---|
D-2~|

| /  slide up
| \  slide down
| h  hammer-on
| p  pull-off
| ~  vibrato
| +  harmonic
| x  Mute note
===============================================================================
Suggest correction new What's this?
You can suggest a correction to this tab. Community and Mods will review your correction and vote to approve or reject it.
comments
We did not receive enough feedback on this tab! Please rate:
print report bad tab
1 2 3 4 5
1 comment total.
0 reply
DefinatelyMaybe 134 wrote on November 12 2009, 09:35 am

check your ears

guest
You may want to rate the tab now too:
select rating
Please do not post tabs as comments. Select "correction" instead!