Oops, an error
Loading. Please wait.

Rusted From The Rain Bass Tab

version 4
version 4

Whole song

Interactive

752 views 1 this week
no commentswrite comment
1 2 3 4 5
please rate
add to favorites
launch autoscroll
font size
0
reset
guitar tuner
Autoscroll
slow
fast
+/-
esc
set tempo
stop
Help us to improve Ultimate-Guitar.com Take our survey!
×
Author
Difficulty
Tuning
intermediate
D A D G B E
/ = Slider

Intro:2x
G-----------------------------------------|
D-----------------------------------------|
A-----------------------------------------|
D-2-2-4-6--7-7-7/9/7--5-5-5/7/5---0-2-4-0-|

Verse:3x
G--------------------------|
D--------------------------|
A-----0-0-2-0--------------|
D-2-2---------5-5--0-2-4-0-|

Pre-Chorus:1x
G-------------0--------------0---------------0----------------|
D---------------4--------------4---------------4--0-0-0-0-0-0-|
A-3-3-3-3-3-3-----0-0-0-0-0-0-----3-3-3-3-3-3-----------------|
D-------------------------------------------------------------|


Chorus:4x                  Play After 4x
G--------------------------|-----------0-----------------|
D--------------------------|-------------4--0-0-0-0-0-0--|
A-----0---0-2--------------|3-3-3-3-3-3------------------|
D-2-2---5-----5-5--0-0-0-0-|-----------------------------|

Play Intro 2x

Verse:3x
Pre-Chorus:3x
Chorus:4x


Bridge:1x
G-------------------------------------------|
D-------------------------------------------| Play 2x
A-7-7-7-5-5-5-3--3-3-3-0-0-0-3--3-3-3-5-5-5-| 
D-------------------------------------------|

G-------------0---------------0---------------0------------------|
D---------------4---------------4---------------4---000000000000-|
A-33333333333-----000000000000-----333333333333------------------|
D----------------------------------------------------------------|

G--------------0------------------------------------------|
D----------------4-000000000000--121212121212121212121212-|
A-333333333333--------------------------------------------|
D---------------------------------------------------------|

Chorus:4x

Finish:1x
G----------------------------------------------------------------------|
D----------------------------------------------------------------------|
A-----0---0-2--------------7-77-5-55-4-44-3-33-22-0---0-2--------------|
D-2-2---5-----5-5--0-0-0-0--------------------------5-----5-5--0-0-0-0-|

G-------------0------------------0----------------0------------------|
D---------------4-000000000000-----4---------------4-000000000000----| 2x
A-33333333333------------------------333333333333--------------------|
D--------------------------------------------------------------------|

G---------|
D---------|
A---------|
D-2(ring)-|
Suggest correction
Give kudos to tab author, rate the tab!
1 2 3 4 5
comments
print report bad tab
guest
You may want to rate the tab now too:
select rating
Please do not post tabs as comments. Select "correction" instead!