Oops, an error
Loading. Please wait.
We have an official Rusted From The Rain tab made by UG professional guitarists. Check out the tab »
×
17,080 views 12 this week
2 commentsread comments
1 2 3 4 5
x 10
add to favorites
×
Save as Personal and add changes to this tab that will be seen only by you. Learn more ›
×
You can save this tab as Personal to edit and correct it or add notes. All changes will be seen only by you. Learn more »
launch autoscroll
font size
0
reset
guitar tuner
backing track
0:00
0:00
edit
Autoscroll
slow
fast
+/-
esc
set tempo
stop
Author

Intro: (play two times at 0:24)
G|-------------------------------------|
D|-------------------------------------|
A|-------------------------------------|
D|-2-2-4-6--7-7/9-7--5-5/7-5---0-2-4-0-|

Verse 1: (play three times)
G|--------------------------|
D|--------------------------|
A|-----0-0-2-0--------------|
D|-2-2---------5-5--0-2-4-0-|


Pre-Chorus:1x (bass follows drum hits at end)
G|------------------------------------------------------------------------|
D|-------------4/5-4-------------4/5-4-------------4/5-4------------------|
A|-3-3-3-3-3-3-------0-0-0-0-0-0-------3-3-3-3-3-3-------5-555-5-55555555-|
D|------------------------------------------------------------------------|


Chorus: (play three times)
G|----------------------------|
D|----------------------------|
A|-------0---0-2--------------|
D|--2-2----5-----5-5-0-0-0-0--|

Post-chorus:
G|-------------------------------|
D|------------5544----------5544-|
A|--3333333333----5555555555-----|
D|-------------------------------|

-Play intro

Verse 2: (play three times)
G|-------------------------------|
D|-------------------------------|
A|--------0-0-2-0----------------|
D|-2-2-2-2-------5-5-5-5 0-2-4-0-|

-Play Pre-chorus

-Play Chorus three times, then play this:
G|-------------------------------------------------------|
D|------------5544----------5544----------5544-----------|
A|--3333333333----0000000000----3333333333----5555555555-|
D|-------------------------------------------------------|

Solo:  Part one
(Play two times)
G|----------------------------------------------|
D|----------------------------------------------|
A|-------------3--3-3-3--0-0-0-3--3-3-3-5-5-5---|
D|-2-2-2-0-0-0--------------------------------2-|

Solo: Part two:
G|-------------------------------|
D|------------5544----------5544-|
A|--3333333333----0000000000-----|
D|-------------------------------|

G|-------------------------------|
D|------------5544----------5544-|
A|--3333333333----0000000000-----|
D|-------------------------------|

G|-----------------------------------------|
D|------------5544----------12121212121212-|
A|--3333333333----5555555555---------------|
D|-----------------------------------------|

-Play Chorus three times

-Play post chorus

-Play chorus once, then play:
G|----------------------------|
D|----------------------------|
A|-7--77--5--55--3-3-0-0-0-0-||
D|----------------------------|

-Play Chorus once, then play:
G|-------------------------------|
D|------------5544----------5544-|
A|--3333333333----0000000000-----|
D|-------------------------------|

G|-------------------------------|
D|------------5544----------5544-|
A|--3333333333----0000000000-----|
D|-------------------------------|

G|-------------------------------|
D|------------5544----------5544-|
A|--3333333333----5555555555-----|
D|-------------------------------|

G|-------------------------------|
D|------------5544----------5544-|
A|--3333333333----5555555555-----|
D|-------------------------------|

End with:
G|--------|
D|--------|
A|--------|
D|--2~----|

That's pretty much it, any questions, comments or corrections are welcomed.

            
            
Suggest correction
Creating personal tab
Creating personal tab
You can edit any tab online and save it as your Personal.

You can edit, replace or remove any tab part or add personal notes – all changes will be seen only by you.

Personal tabs can be accessed anytime from any device, even offline.
Learn more »
comments
print report bad tab
2 comments total.
0 reply
WhiteSoundD 41 Mar 20, 2012 09:04 AM

Sounds great, but the chorus couldve been made easier by playing all on the D string

0 reply
just a name 437 Nov 16, 2012 02:36 PM

G|-------------------------------------------------------|
D|-------------------------------------------------------|
A|-7--77--5--55--4--44--3--33--2-22-0-0-2-0--------------|
D|------------------------------------------5-5--0-2-4-0-|

guest
You may want to rate the tab now too:
select rating
Wanna post a correction for this tab? Suggest correction