Oops, an error
Loading. Please wait.
We have an official Rusted From The Rain tab made by UG professional guitarists. Check out the tab »
×
30,769 views 6 this week
5 commentsread comments
1 2 3 4 5
x 12
add to favorites
×
Save as Personal and add changes to this tab that will be seen only by you. Learn more ›
×
You can save this tab as Personal to edit and correct it or add notes. All changes will be seen only by you. Learn more »
launch autoscroll
font size
0
reset
how to read this tab
guitar tuner
backing track
0:00
0:00
edit
Autoscroll
slow
fast
+/-
esc
set tempo
stop
First Tab, any questions E-mail hespin_hammerhead@hotmail.co.uk

87 bpm

Intro
   E E E E E E E E   E E E E E E E E
E|-----0-------0---|-----0-----------|
B|o--0-0-------0---|-----0----------o|
G|-----------6-----|---4-------------|
D|-2-----2-7-----7-|-5-----5-0-2-4-0-|  X3
A|o----------------|----------------o|
D|-----------------|-----------------|
   E E E E E E E E   E E E E H
E|-----0-------0---|-----0----------||
B|-----0-------0---|-----0----------||
G|-----4-------4---|-----5----------||
D|---2---2---2---2-|---4---4--------||
A|-3-------3-------|-5-------5------||
D|-----------------|----------------||

Pre-Verse
   E E E E E E E E   E E E E E E E E          W
E|-----------------|-----------------|      |-----------||
B|o----------------|----------------o|      |-----------||
G|-----------------|-----------------|      |-----------||
D|-----------------|-----------------| Then |-----------||
A|o----------------|----------------o|      |-2---------||
D|-2-2-4/6-7-7-9/7-|-5-5/7-5-0-2-4-0-|      |-2---------||

Verse
   W                 H.          E E   W               H.         E E 
E|-0---------------|(0)----------0-0-|-0-------------|-0---------(0)0-|
B|-0---------------|(0)----------0-0-|-0-------------|-0---------(0)0-|
G|-4---------------|(4)----------4-4-|(4)------------|-4---------(4)4-|
D|-2---------------|(2)----------2---|---------------|----------------|
A|-----------------|-----------------|---------------|----------------|
D|-----------------|-----------------|---------------|----------------|
   Q   Q   E E E E   E E E E E E E E
E|-0---0-------0---|-----0-----------||
B|-0---0-------0---|-----0-----------||
G|-----------6-----|---4-------------||
D|---------7-----7-|-5-----5-0-2-4-0-||
A|-----------------|-----------------||
D|-----------------|-----------------||

Pre-Chorus
   E E E E E E SSE   E E E E E E SSE   E E E E E E SSE  SSSSSSSSSSSSSSSS
E|-----0-----------|-----0-----------|-----0-----------|0000000000000000||
B|-----0-------0---|-----0-------0---|-----0-------0---|0000000000000000||
G|---0-4-------4br-|-----4-------4br-|---0-4-------4br-|5555555555555555||
D|-------2---2-----|---2---2---2-----|-------2---2-----|4444444444444444||
A|-3-------3-------|-0-------0-------|-3-------3-------|5555555555555555||
D|-----------------|-----------------|-----------------|----------------||

Chorus
   Q   Q   E E E E   Q   Q   E E E E
E|-0---0-----------|------------------|
B|o0---0--10-8-1011|-8---8-----------o|
G|-4---4---9-7-9-10|-7---7---7-7-5-5--|
D|-2---2---7-5-7-9-|-5---5---0-0-0-0--| X3
A|o2---2---7-5-7-9-|-5---5---0-0-0-0-o|
D|-2---2---7-5-7-9-|-5---5---0-0-0-0--|________________________________
                                     /    play second chorus only     \
  SSSSSSSSSSSSSSSS SSSSSSSSSSSSSSSS  SSSSSSSSSSSSSSSS SSSSSSSSSSE Q
E|0000000000000000|0000000000000000||0000000000000000|0000000000------||
B|0000000000000000|0000000000000000||0000000000000000|0000000000------||
G|4444444444444444|5555555555555555||4444444444444444|5555555555------||
D|2222222222222222|4444444444444444||2222222222222222|4444444444------||
A|3333333333333333|5555555555555555||3333333333333333|5555555555------||
D|----------------|----------------||----------------|----------------||

Solo
    H     E ES S E   E E E E S S S S S S E  E E S S S S S S S S E E
E|----------------|-----------------------|-------------------------|
B|----------------|o---5-3----------------|-------------------------|
G|-----------0h2-4|~(4)----5-4h5-4p2-4p2--|-----------2-4h5-4p2-4~--|
D|----------2-----|----------------------5|(5)5-2h4h5-------------5-| 
A|----------------|o----------------------|-------------------------|
D|----------------|-----------------------|-------------------------|
                      __
                     /  \  Second time play   S S S S
   E E S S SSS S S S E E                    |---------|
E|-----------------------|                  |---------|
B|----------------------o|                  |---------|
G|----------24h5-4p2-4-4-|                  |---2-4h5-|
D|(5)5-2h4h5-------------|                  |-5-------|
A|----------------------o|                  |---------|
D|-----------------------|                  |---------|

  SSSSSSSSSSSSSSSS SSSSSSSSSSSSSSSS SSSSSSSSSSSSSSSS
E|0000000000000000|0000000000000000|0000000000000000|
B|3303553577875301|3303553577875301|3303553577875301|
G|----------------|----------------|----------------|
D|----------------|----------------|----------------|
A|----------------|----------------|----------------|
D|----------------|----------------|----------------|

  SSSSSSSSSSSSSSSS  S S S S S S S S S S S S S S S S   W        W
E|0000000000000000|-0-0-0-0-0-0-0-0-0-0-0-0-0-0-0-0-|-0------|(0)------||
B|3303553577878878|1010-810121210121313121315151215-|17~~~~~~|---------||
G|----------------|---------------------------------|--------|---------||
D|----------------|---------------------------------|--------|---------||
A|----------------|---------------------------------|--------|---------||
D|----------------|---------------------------------|--------|---------||

Outro
   Q   Q   E E E E  Q   Q   E E E E  E E E E E E E E  E E E SS E E E E
E|-0---0----------|----------------|-----------------|----------------|
B|-0---0--10-81012|-8---8----------|-----------------|----------------|
G|-4---4---9-7-911|-7---7---7-7-5-5|-----------------|----------------|
D|-2---2---7-5-7-9|-5---5---0-0-0-0|\2-2-2-2-0-0h2-0-|----------------|
A|-2---2---7-5-7-9|-5---5---0-0-0-0|-----------------|4~4-4-44-3-3h5-3|
D|-2---2---7-5-7-9|-5---5---0-0-0-0|-----------------|----------------|

   E E E E E E E E  Q   Q   E E E E  SSSSSSSSSSSSSSS S SSSSSSSSSSSSSSS S
E|----------------|----------------|------------------|-----------------|
B|--------10-81012|-8---8----------|o-----------------|----------------o|
G|---------9-7-911|-7---7---7-7-5-5|------------------|-----------------|
D|---------7-5-7-9|-5---5---0-0-0-0|-2222222222224brp0|2222222222224brp0| X3
A|-2-2-2-2-7-5-7-9|-5---5---0-0-0-0|o-----------------|----------------o|
D|---------7-5-7-9|-5---5---0-0-0-0|------------------|-----------------|

  SSSSSSSSSSSSSSS S SSSSSSSSSSS E S S E   W
E|-----------------|--------------------|-0--------------||
B|-----------------|--------------------|-0--------------||
G|-----------------|--------------0h2-4-|-4--------------||
D|2222222222224brp0|22222222222-2-------|-2--------------||
A|-----------------|--------------------|-2--------------||
D|-----------------|--------------------|-2--------------||

Lyrics

I stumble from the wreckage
Rusted from the rain
Theres nothing left to salvage
No one left to blame
Among the broken mirrors
I dont look the same
I'm rusted from the rain
I'm rusted from the rain

Dissect me 'till my blood runs down into the drain
My bitter heart is pumping oil into my veins
I'm nothing but a tin man, don't feel any pain
I don't feel any pain, I don't feel any pain
I'm rusted from the rain

Go on crush me like a flower, rusted from the rain
Come on, strip me of my power, beat me with your chains
And if I'm the king of cowards, you're the queen of pain
I'm rusted from the rain, I'm rusted from the rain

You hung me like a picture, now I'm just a frame
I used to be your lap dog, now I'm just a stray
Shackled in a graveyard, left here to decay
Left here to decay, left here to decay

I'm rusted from the rain

Go on crush me like a flower, rusted from the rain
Come on, strip me of my power, beat me with your chains
And if I'm the king of cowards, you're the queen of pain
I'm rusted from the rain, I'm rusted from the rain

I'm rusted from the rain

Go on crush me like a flower, rusted from the rain
Come on, strip me of my power, beat me with your chains
And if I'm the king of cowards, you're the queen of pain
I'm rusted from the rain, I'm rusted from the rain

Go on crush me like a flower, rusted from the rain
Come on, strip me of my power, beat me with your chains
And if I'm the king of cowards, you're the queen of pain
I'm rusted from the rain, I'm rusted from the rain
The sun will shine again, I'm rusted from the rain
I'm rusted from the rain, the sun will shine again

I'm Rusted from the rain

            
            
Suggest correction
Creating personal tab
Creating personal tab
You can edit any tab online and save it as your Personal.

You can edit, replace or remove any tab part or add personal notes – all changes will be seen only by you.

Personal tabs can be accessed anytime from any device, even offline.
Learn more »
comments
print report bad tab
5 comments total. Showing first comments.
0 reply
ethan_hanus 491 Nov 26, 2009 10:16 AM

Its freaken dead on the whole way through. Great job man.

0 reply
X7kl 10 Feb 07, 2010 07:18 AM

nice 1
tnx for put in it on :D

0 reply
GerrothRock 10 Aug 09, 2010 12:40 PM

It seems perfect, great job mate

guest
Wanna post a correction for this tab? Suggest correction