Oops, an error
Loading. Please wait.

Saint Veronika Bass Tab

version 1
version 1

Whole song

Interactive

21,007 views 30 this week
2 commentsread comments
1 2 3 4 5
excellent!
x 3
add to favorites
launch autoscroll
font size
0
reset
guitar tuner
Tab Pro tools
  • play this tab
  • loop segment
  • change instrument
  • show fretboard
  • metronome
Autoscroll
slow
fast
+/-
esc
set tempo
stop
Contributor
tabbed by tony.d

im on it. ill fix it up later

Intro:20x
G--------|
D--------|
A-555555-|
D--------|

Verse:2x
G-----------------------------------------------------|
D-----------------------------------------------------|
A-----------------------------------------------------|
D-0000000000-33-55-777777777-55555555-33333333-7777-8-|


Chorus:2x
G-------------------------------------------------------------------------|
D-------------------------------------------------------------------------|
A-----------------------------------------------44444444-55555555-777-888-|
D-88888888-777777777-55555555-33333333-77777777---------------------------|

Post-Chorus: Play Intro 3x
Verse:4x
Chorus:2x

Bridge:3x
G----------------------------------------------------------------|
D---------------------------------------------------5-7-5--------|
A----------------------------------00-7-0-8-0-5-0-7-------8-7-8--|
D-00-7-0-8-0-5-0-7-0-5-0-3-5-3-2-3-------------------------------|

G---------------------------------------------------|
D---------------------------------------------------|
A----7-0-8-0-5-0-7-3-0-1-0--------------------------|
D-55-----------------------5-7--333333-5-3-222222-3-|

Post-Bridge:1x
G---------------------------------------------------|
D---------------------------------------------------| Play 2x
A---------------------------------------------------|
D-0(ring)---7(ring)---5(ring)-7-5-3-3--5-3-2-2--3-2-|

G--------------------------------------------------|
D--------------------------------------------------| Play 2x
A--------------------------------------------------|
D-0-0-00-0--7-7-77-7--5-5-55-7-5-3-3--5-3-2-2--3-2-|


---Glockenspiel & Guitar Break---

After Break: 1x
G--------------|
D--------------|
A-5555-777-888-|
D--------------|

Chorus:3x
Outro: Play Intro 4x
comments
We did not receive enough feedback on this tab! Please rate:
print report bad tab
1 2 3 4 5
2 comments total.
0 reply
svenovich wrote on August 1 2009, 02:52 pm

I think you should consider to rewrite your tab, a few flaws, but the notes are okay to me, and you could listen out the flaws yourself.

0 reply
FBassman wrote on August 11 2009, 06:46 pm

ditto. also the end of the chorus is one octave too high and too many notes. it should be

D|--0---0---2-2-2---3-3-3

other than that it's decent. the bridge has flaws that seem to be more typos than anything... decent work

I want to post or [tab]
guest
You may want to rate the tab now too:
select rating
Please do not post tabs as comments. Select "correction" instead!