Oops, an error
Loading. Please wait.

Saint Veronika tab

version 1
version 1

Whole song

Interactive

105,586 views 189 this week
5 commentsread comments
1 2 3 4 5
x 32
add to favorites
×
Save as Personal and add changes to this tab that will be seen only by you. Learn more ›
×
You can save this tab as Personal to edit and correct it or add notes. All changes will be seen only by you. Learn more »
launch autoscroll
font size
0
reset
how to read this tab
guitar tuner
backing track
0:00
0:00
edit
Autoscroll
slow
fast
+/-
esc
set tempo
stop
-------------------------------------------------------------------------------
                             Saint Veronika – Billy Talent
-------------------------------------------------------------------------------
Tabbed by:PT-E
Email:

(8.3.09) I edited some parts.this tab is from BT Deluxe Edition 
         so it should be 100% correct.
         


Tuning:Drop D


[Intro] (x4)

e|---------------------------------------------------------------------------|
B|---------------------------------------------------------------------------|
G|---------------------------------------------------------------------------|
D|-----------------------------------------------------------7-----7---------|
A|---------5-----5---------5-----5---------10-----10-------------------------|
D|-0-0-0-0---0-0---3-3-3-3---3-3---8-8-8-8----8-8----5-5-5-5---5-5-----------|


[Verse] (x2)

e|---------------------------------------------------------------------------|
B|---------------------------------------------------------------------------|
G|---------------------------------------------------------------------------|
D|---------------------------------------------------------------------------|
A|---------------------------------------------------------------------------|
D|-0-0-0-0-0-0-0-0-0-0-0-0-3-3-5-5-7-7-7-7-7-7-7-7-7-7-7-5-5-5-5-5-5-5-5-5-5-|

e|----------------------------------|---------------------------|
B|----------------------------------|---------------------------|
G|----------------------------------|---------------------------|
D|----------------------------------|-------------7-7-7-7-7-7---|
A|----------------------------------|-------------7-7-7-7-7-7---|
D|-3-3-3-3-3-3-3-3-7-7-7-7-8-8-8-8--|-3-3-3-3-3-3-7-7-7-7-7-7---|


[Chorus] (x2)

e|-----------------0-0-0-0---------------------------------------------------|
B|-3-3-3-3-3-3-3-3-5-5-5-5-6-6-6-6-------------------------------------------|
G|-3-3-3-3-3-3-3-3-0-0-0-0-0-0-0-0-------------------------------------------|
D|-3-3-3-3-3-3-3-3-5-5-5-5-5-5-5-5-8-8-8-8-8-8-8-8-7-7-7-7-7-7-7-7-----------|
A|-1-1-1-1-1-1-1-1-0-0-0-0-0-0-0-0-5-5-5-5-5-5-5-5-3-3-3-3-3-3-3-3-----------|
D|---------------------------------5-5-5-5-5-5-5-5-3-3-3-3-3-3-3-3-----------|

e|-0-0-0-0-0-0-0-0--0-0-0-0-0-0-0-0---5--5--5--5-----------101010------------|
B|-5-5-5-5-6-6-6-6--5-5-5-5-8-8-8-8---6--6--6--6---8-8-8---101010------------|
G|-0-0-0-0-0-0-0-0--0-0-0-0-0-0-0-0---5--5--5--5---x-x-x---7-7-7-------------|
D|-5-5-5-5-5-5-5-5--5-5-5-5-5-5-5-5---7--7--7--7---8-8-8---7-7-7-------------|
A|-0-0-0-0-0-0-0-0--4-4-4-4-4-4-4-4---5--5--5--5---7-7-7---8-8-8-------------|
D|---------------------------------------------------------------------------|


e|---------------------------------------------------------------------------|
B|---------------------------------------------------------------------------|
G|---------------------------------------------------------------------------|
D|-----------------------------------------------------------7-----7---------|
A|---------5-----5---------5-----5---------10-----10-------------------------|
D|-0-0-0-0---0-0---3-3-3-3---3-3---8-8-8-8----8-8----5-5-5-5---5-5-----------|


[Verse] (x4)

e|---------------------------------------------------------------------------|
B|---------------------------------------------------------------------------|
G|---------------------------------------------------------------------------|
D|---------------------------------------------------------------------------|
A|---------------------------------------------------------------------------|
D|-0-0-0-0-0-0-0-0-0-0-0-0-3-3-5-5-7-7-7-7-7-7-7-7-7-7-7-5-5-5-5-5-5-5-5-5-5-|

e|----------------------------------|-----------------------------|
B|----------------------------------|-----------------------------|
G|----------------------------------|-----------------------------|
D|----------------------------------|---------------7-7-7-7-7-7---|
A|----------------------------------|---------------7-7-7-7-7-7---|
D|-3-3-3-3-3-3-3-3-7-7-7-7-8-8-8-8--|-3-3-3-3-3-3-3-7-7-7-7-7-7---|


[Chorus]

e|-----------------0-0-0-0---------------------------------------------------|
B|-3-3-3-3-3-3-3-3-5-5-5-5-6-6-6-6-------------------------------------------|
G|-3-3-3-3-3-3-3-3-0-0-0-0-0-0-0-0-------------------------------------------|
D|-3-3-3-3-3-3-3-3-5-5-5-5-5-5-5-5-8-8-8-8-8-8-8-8-7-7-7-7-7-7-7-7-----------|
A|-1-1-1-1-1-1-1-1-0-0-0-0-0-0-0-0-5-5-5-5-5-5-5-5-3-3-3-3-3-3-3-3-----------|
D|---------------------------------5-5-5-5-5-5-5-5-3-3-3-3-3-3-3-3-----------|

e|-0-0-0-0-0-0-0-0--0-0-0-0-0-0-0-0---5--5--5--5-----------101010------------|
B|-5-5-5-5-6-6-6-6--5-5-5-5-8-8-8-8---6--6--6--6---8-8-8---101010------------|
G|-0-0-0-0-0-0-0-0--0-0-0-0-0-0-0-0---5--5--5--5---x-x-x---7-7-7-------------|
D|-5-5-5-5-5-5-5-5--5-5-5-5-5-5-5-5---7--7--7--7---8-8-8---7-7-7-------------|
A|-0-0-0-0-0-0-0-0--4-4-4-4-4-4-4-4---5--5--5--5---7-7-7---8-8-8-------------|
D|---------------------------------------------------------------------------|

e|--------------------------0--0--0--0--0--0--0--0---0--0--0--0--0--0--0--0--|
B|-15-15-15-15-15-15-15-15--15-15-15-15-15-15-15-15--11-11-11-11-11-11-11-11-|
G|-12-12-12-12-12-12-12-12--0--0--0--0--0--0--0--0---0--0--0--0--0--0--0--0--|
D|-12-12-12-12-12-12-12-12--15-15-15-15-15-15-15-15--12-12-12-12-12-12-12-12-|
A|-13-13-13-13-13-13-13-13--12-12-12-12-12-12-12-12--10-10-10-10-10-10-10-10-|
D|---------------------------------------------------------------------------|

e|-0--0--0--0--0--0--0--0--------------------|
B|-10-10-10-10-10-10-10-10-------------------|
G|-0--0--0--0--0--0--0--0--------------------|
D|-10-10-10-10-10-10-10-10-------------------|
A|-8--8--8--8--8--8--8--8--------------------|
D|-------------------------------------------|

e|------------------------------------5--5--5--5-----------101010------------|
B|-5-5-5-5-6-6-6-6--5-5-5-5-8-8-8-8---6--6--6--6---8-8-8---101010------------|
G|-x-x-x-x-x-x-x-x--x-x-x-x-x-x-x-x---5--5--5--5---x-x-x---7-7-7-------------|
D|-5-5-5-5-5-5-5-5--5-5-5-5-5-5-5-5---7--7--7--7---8-8-8---7-7-7-------------|
A|-0-0-0-0-0-0-0-0--4-4-4-4-4-4-4-4---5--5--5--5---7-7-7---8-8-8-------------|
D|---------------------------------------------------------------------------|


[Solo] (x2)

w/fuzz pedal
e|---------------------------------------------------------------------------|
B|---------------------------------------------------------------------------|
G|---------------------------------------------------------------------------|
D|-----------------------------------------------------5-7-5-----------------|
A|---------------------------------0-0-7-0-8-0-5-0-7-0-------8-7-8-----------|
D|-0-0-7-0-8-0-5-0-7-0-3-0-5-3-2-3-------------------------------------------|

e|---------------------------------------------------------------------------|
B|---------------------------------------------------------------------------|
G|---------------------------------------------------------------------------|
D|---------------------------------------------------------------------------|
A|-----7-0-8-0-5-0-7-0-3-0-1-0-----------------------------------------------|
D|-5-5-------------------------5-7-3-3-3-3-3-3-5-3-2-2-2-2-2-2-3-2-----------|


  2x
e|---------------------------------------------------------------------------|
B|---------------------------------------------------------------------------|
G|---------------------------------------------------------------------------|
D|-----------------------------------------------------5-7-5-----------------|
A|---------------------------------0-0-7p0-8p0-5p0-7p0-------8-7-8-----------|
D|-0-0-7p0-8p0-5p0-7p0-3p0-5-3-2-3-------------------------------------------|

e|-----------------------------------------------------|-----------------------|
B|-----------------------------------------------------|-----------------------|
G|-----------------------------------------------------|-----------------------|
D|---------------------------------3-3-3-3-3-----5-5-3-|-3-3-3-3-3-3-3-5-5-----|
A|-----7p0-8p0-5p0-7p0-3p0-1p0-----3-3-3-3-3-----3-3-3-|-3-3-3-3-3-3-3-3-3-3--2|
D|-5-5-------------------------5h7-3-3-3-3-3-5-3-2-2-3-|-3-3-3-3-3-3-3-2-2-3--2|


  2x
e|----------------------------------------------------------------------------|
B|-3-----------2--------------------------------------------------------------|
G|-2-----------2--------------------------------------------------------------|
D|-0-----------2------------8---7---5--5-----5--7--7--5--3--5-5---------------|
A|-0-----------0------------5---5---5--5--8--5--3--3--3--3--3-3--3--2---------|
D|-0------------------------5---5---5--5--5--5--3--3--3--3--2-2--3--2---------|


  2x
e|---------------------------------------------------------------------------|
B|----------------------------------2--2--2-2-2-2-2--------------------------|
G|----------------------------------2--2--2-2-2-2-2--------------------------|
D|----------------------------------2--2--2-2-2-2-2--------------------------|
A|----------------------------------0--0--0-0-0-0-0--------------------------|
D|-0-0-7p0-8p0-5p0-7p0-3p0-5-3-2-3-------------------------------------------|


e|---------------------------------------------------------------------------|
B|---------------------------------------------------------------------------|
G|---------------------------------------------------------------------------|
D|---------------------------------3-3-3--5-5--3--2--------------------------|
A|-----7p0-8p0-5p0-7p0-3p0-1p0-----3-3-3--3-3--3--2--------------------------|
D|-5-5-------------------------5h7-3-3-3--2-2--3--2--------------------------|



e|-------------------------------------------------------------------------10--|
B|---------15---------15---------11--------10-------5-------5-------6---8--10--|
G|-------12---------0----------0---------0--------0-------0-------0-----x--7---|
D|----12---------15---------12--------10--------5-------5-------7-------8--7---|
A|-13---------12---------10---------8---------0-------4-------5---------7--8---|
D|-----------------------------------------------------------------------------|


e|------------------------------------------------------------5-5-5-----101010-|
B|---------15---------15---------11--------10-------5-------5-6-6-6-888-101010-|
G|-------12---------0----------0---------0--------0-------0---5-5-5-xxx-7-7-7--|
D|----12---------15---------12--------10--------5-------5-----7-7-7-888-7-7-7--|
A|-13---------12---------10---------8---------0-------4-------5-5-5-777-8-8-8--|
D|-----------------------------------------------------------------------------|


[Chorus] (2x)

e|-----------------0-0-0-0---------------------------------------------------|
B|-3-3-3-3-3-3-3-3-5-5-5-5-6-6-6-6-------------------------------------------|
G|-3-3-3-3-3-3-3-3-0-0-0-0-0-0-0-0-------------------------------------------|
D|-3-3-3-3-3-3-3-3-5-5-5-5-5-5-5-5-8-8-8-8-8-8-8-8-7-7-7-7-7-7-7-7-----------|
A|-1-1-1-1-1-1-1-1-0-0-0-0-0-0-0-0-5-5-5-5-5-5-5-5-3-3-3-3-3-3-3-3-----------|
D|---------------------------------5-5-5-5-5-5-5-5-3-3-3-3-3-3-3-3-----------|

e|-0-0-0-0-0-0-0-0--0-0-0-0-0-0-0-0---5--5--5--5-----------101010------------|
B|-5-5-5-5-6-6-6-6--5-5-5-5-8-8-8-8---6--6--6--6---8-8-8---101010------------|
G|-0-0-0-0-0-0-0-0--0-0-0-0-0-0-0-0---5--5--5--5---x-x-x---7-7-7-------------|
D|-5-5-5-5-5-5-5-5--5-5-5-5-5-5-5-5---7--7--7--7---8-8-8---7-7-7-------------|
A|-0-0-0-0-0-0-0-0--4-4-4-4-4-4-4-4---5--5--5--5---7-7-7---8-8-8-------------|
D|---------------------------------------------------------------------------|

  1x
e|--------------------------0--0--0--0--0--0--0--0---0--0--0--0--0--0--0--0--|
B|-15-15-15-15-15-15-15-15--15-15-15-15-15-15-15-15--11-11-11-11-11-11-11-11-|
G|-12-12-12-12-12-12-12-12--0--0--0--0--0--0--0--0---0--0--0--0--0--0--0--0--|
D|-12-12-12-12-12-12-12-12--15-15-15-15-15-15-15-15--12-12-12-12-12-12-12-12-|
A|-13-13-13-13-13-13-13-13--12-12-12-12-12-12-12-12--10-10-10-10-10-10-10-10-|
D|---------------------------------------------------------------------------|

e|-0--0--0--0--0--0--0--0--------------------|
B|-10-10-10-10-10-10-10-10-------------------|
G|-0--0--0--0--0--0--0--0--------------------|
D|-10-10-10-10-10-10-10-10-------------------|
A|-8--8--8--8--8--8--8--8--------------------|
D|-------------------------------------------|

e|------------------------------------5--5--5--5-----------10101010----------|
B|-5-5-5-5-6-6-6-6--5-5-5-5-8-8-8-8---6--6--6--6---8-8-8---10101010----------|
G|-x-x-x-x-x-x-x-x--x-x-x-x-x-x-x-x---5--5--5--5---x-x-x---7-7-7-7-----------|
D|-5-5-5-5-5-5-5-5--5-5-5-5-5-5-5-5---7--7--7--7---8-8-8---7-7-7-7-----------|
A|-0-0-0-0-0-0-0-0--4-4-4-4-4-4-4-4---5--5--5--5---7-7-7---8-8-8-8-----------|
D|---------------------------------------------------------------------------|


[Outro]

e|---------------------------------------------------------------------------|
B|---------------------------------------------------------------------------|
G|---------------------------------------------------------------------------|
D|-----------------------------------------------------------7-7-7-7---------|
A|---------5-----5---------5-----5---------10-----10-------------------------|
D|-0-0-0-0---0-0---3-3-3-3---3-3---8-8-8-8----8-8----5-5-5-5-----------------|


************************************

| x  Dead note
| h  Hammer-on
| p  Pull-off

************************************

            
            
Suggest correction
Creating personal tab
Creating personal tab
You can edit any tab online and save it as your Personal.

You can edit, replace or remove any tab part or add personal notes – all changes will be seen only by you.

Personal tabs can be accessed anytime from any device, even offline.
Learn more »
comments
print report bad tab
5 comments total. Showing first comments.
0 reply
a1w2a3g4 10 Jun 20, 2009 01:06 AM

Good Tab! 5*

0 reply
Blinker182182 97 Jun 20, 2009 08:01 AM

nicely done. could have been a little better format and the solo is played 4 times (twice each type of distortion) but the tab itself is good. 5*

+1 reply
BTrz 188 Jun 21, 2009 07:22 AM

chorus is off, solo's a bit off and you missed notes in the part after the solo... 3*

guest
You may want to rate the tab now too:
select rating
Wanna post a correction for this tab? Suggest correction