Oops, an error
Loading. Please wait.

Stand Up And Run Tab

version 1
version 1

Whole song

Interactive

27,172 views 51 this week
3 commentsread comments
1 2 3 4 5
excellent!
x 16
add to favorites
launch autoscroll
font size
0
reset
how to read this tab
guitar tuner
Autoscroll
slow
fast
+/-
esc
set tempo
stop
Help us to improve Ultimate-Guitar.com Take our survey!
×
Author
Artist: Billy Talent
Song: Stand Up And Run
Album: Dead Silence
Tabbed by: Zuka

Tuning: Drop D (D A D G B E)
Stand Up And Run is the 6th song on BT's new album. After a few listens it
seems to be a more 'mature' version of "Surrender"; Lets get to it, then.

Intro: (Same as verse)

Verse:

e|-------------------------------|
B|-------------------------------|
G|-7--7--7-7-7-9--9-9-9-9-9-9-77-| X3
D|-7--7--7-7-7-8--8-8-8-8-8-8-77-| 
A|-9--9--9-9-9-9--9-9-9-9-9-9-99-|
D|-0--0--0-0-0-0--0-0-0-0-0-0-00-|
(Oh I had a feeling...)

e|----------------------------00-|
B|----------------------------00-|
G|-7--7--7-7-7-9--9-9-9-9-9-9-77-| 
D|-7--7--7-7-7-8--8-8-8-8-8-8-55-| 
A|-9--9--9-9-9-9--9-9-9-9-9-9-77-|
D|-0--0--0-0-0-0--0-0-0-0-0-0----|

Pre Chorus:

e|-0-------|
B|-0--3----|
G|-7--3----|
D|-5--3--8-|
A|-7--1--5-|
D|-------5-|
(Oh I couldn't tell you...)

(These are just the chords, the strumming pattern is very easy to learn
yourself)

e|-------------------------------|
B|-------------------------------|
G|-7--7--7-7-7-9--9-9-9-9-9-9-77-| 
D|-7--7--7-7-7-8--8-8-8-8-8-8-77-| 
A|-9--9--9-9-9-9--9-9-9-9-9-9-99-|
D|-0--0--0-0-0-0--0-0-0-0-0-0-00-|

e|-------------------------------|
B|-------------------------------|
G|-7--7--7-7-7-9--9-9-9-9-9-9-XX-| 
D|-7--7--7-7-7-8--8-8-8-8-8-8-XX-| 
A|-9--9--9-9-9-9--9-9-9-9-9-9-XX-|
D|-0--0--0-0-0-0--0-0-0-0-0-0----|

Chorus:

e|---------------|
B|-5--3--3--3--2-|
G|-5--5--0--2--2-|
D|-5--5--2--2--2-|
A|-3--3--2--0--0-|
D|---------------|
(Stand up and run...)

Bridge:

e|-0-------0-------------2---0---0-----------------------------------|
B|-3---3-----3---------3-------3-------------0-------------0---------|
G|-2-----2-----2-----0-----0-------------2-----2-------2-------2-----|
D|-0-----------------------------------0---0-----0-------0---0---5/7-|
A|-0-----------------------------------------------------------------|
D|-0-------------2------------------4--------------5-----------------|
   U*

* Start with an upstroke on Dsus2! This is mostly just a walk-up from a
Dsus2. You could play this however you like so long as you maintain the 
climbing root notes. (D, E, F#, G) I find the trick to playing this is using
the proper finger for each root note. I might chalk up a Guitar Pro version
of this to make it easier to read.

After this, play the Chorus, Verse, Chorus, Verse.. now you're finished. This
song packs a ton of soul, so go play it for your partner/crush.
Suggest correction
What's this?
You can suggest a correction to this tab. Community and Mods will review your correction and vote to approve or reject it.
comments
print report bad tab
3 comments total.
0 reply
jimhuang02 11 wrote on June 25 2013, 01:24 am

Try
e|-0--0--|
B|-3--5--|
G|-2--3--|
D|-0--4--|
A|-0--0--|
D|-0--0--|

Pre Chorus:

e|-0--1--x-|
B|-3--3--x-|
G|-0--3--8-|
D|-2--3--5-|
A|-0--1--5-|
D|-x--x--5-|

Then
e|-2--0--|
B|-3--5--|
G|-2--3--|
D|-0--4--|
A|-0--0--|
D|-0--0--|

-1 reply
Matyas.Jouza 15 wrote on October 7 2014, 11:30 am

I saw Ian playing and it was more like this.
e|-------------------------------|
B|-------------------------------|
G|-7--7--7-7-7-9--9-9-9-9-9-9-77-|
D|-0--0--0-0-0-8--8-8-8-8-8-8-00-|
A|-9--9--9-9-9-9--9-9-9-9-9-9-99-|
D|-0--0--0-0-0-0--0-0-0-0-0-0-00-|

0 reply
COLDHAERTEDMAN 11 wrote on June 21 2015, 06:02 pm

since its either the root note or the fifth on the root it dosent matter that much

guest
You may want to rate the tab now too:
select rating
Please do not post tabs as comments. Select "correction" instead!