Oops, an error
Loading. Please wait.

Standing In The Rain Bass Tab

version 1
version 1

Whole song

Interactive

5,880 views 3 this week
2 commentsread comments
1 2 3 4 5
excellent!
x 5
add to favorites
launch autoscroll
font size
0
reset
guitar tuner
Tab Pro tools
  • play this tab
  • loop segment
  • change instrument
  • show fretboard
  • metronome
×
Best way to learn
"Standing In The Rain"
Autoscroll
slow
fast
+/-
esc
set tempo
stop
Contributor
Song: Standing In The Rain
Album: Billy Talent
Band: Billy Talent
Tabbed By: Masterbasser36


Intro / Chorus:
                          2x
G|---------------------------------------------------|
D|---------------------------------------------------|
A|-2---2---------------------------3---3-------------|
D|-------0-2---4-5-4---4-0-5-4-2-0-------0-4---4-0---|

Verse
               3x
G|-----------------------------|---------------------|
D|-----------------------------|---------------------|
A|--22---00--------------------|-22---00-------------|
D|------------0-2-4-0-5-5-5-5--|-----------0-2-4-0-5-|

Pre-Chorus
G|----------------------------------|--------------------------------------------------|
D|----------------------------------|--------------------------------------------------|
A|----------------5-5-5-5-1-4-1-2---|---------------5-5-5-5-1-1-1-11/1313131313131313--|
D|--2-4-5-4---4-4-------------------|-2-4-5-4---4-4------------------------------------|

Interlude
G|---------------------------------|---------------------------------|
D|---------------------------------|---------------------------------|
A|-2-2-2-2-0-0-0-0-----------------|-2-2-2-2-0-0-0-0---------------.-|
D|-----------------0-0-0-0-5-5-5-5-|-----------------0-2-4-0-5-----5-|

Guitar Solo
G|-------------------------------|-----------------------------|
D|---------2-2-------------------|---------2-2-------2-4-0-----|
A|-2-2-4-5-------4-5-5-----------|-2-2-4-5-------4-5-----------|
D|-----------------------4-5---5-|-------------------------5---|

Bridge
      2x                          1x
G|-----------|-------------------------------------------|
D|-----------|---------------------------------------5---|
A|--no bass--|-2-2-2---------------------------3-3-3---.-|
D|-----------|-------0-2-2-4-5-4-4-4-4-5-4-2-0---------4-|


Ending
G|---|
D|-2-|
A|---|
D|---|
comments
print report bad tab
2 comments total.
0 reply
Angelclaw wrote on December 13 2007, 10:56 am

Great tab!

0 reply
Andrax20 wrote on May 21 2010, 01:40 pm

Don't forget the bass harmonic played just before the bridge, it sounds like a Piano note, but it's Jon playing. ;)

I want to post or [tab]
guest
You may want to rate the tab now too:
select rating
Please do not post tabs as comments. Select "correction" instead!