Oops, an error
Loading. Please wait.

Standing In The Rain tab

version 2
version 2

Whole song

Interactive

731 views 9 this week
no commentswrite comment
1 2 3 4 5
2 more votes to show rating
add to favorites
×
Save as Personal and add changes to this tab that will be seen only by you. Learn more ›
×
You can save this tab as Personal to edit and correct it or add notes. All changes will be seen only by you. Learn more »
launch autoscroll
font size
0
reset
how to read this tab
guitar tuner
edit
Autoscroll
slow
fast
+/-
esc
set tempo
stop
-------------------------------------------------------------------------------
                      Standing In The Rain - Billy Talent
-------------------------------------------------------------------------------
Tabbed by: Greem_Lemon
Just a great, simple Billy Talent song.

I could only get the lyrics to fit in the verses without the tab getting too messed up,
hope that doesn't affect too much.


Tuning: Dropped D 
Tempo: 115
Both guitars distorted

Intro
e|-2---2---------------|-----------------------|---------------------|
B|-3---3---------------|-----------------------|-5---5---------------|
G|-4---4---------------|-----------------------|-5---5---------------|
D|-4---4--0--2---4--5--|-4---4--0--5--4--2--0--|-5---5--0--4---4-----|
A|-2---2--0--2---4--5--|-4---4--0--5--4--2--0--|-3---3--0--4---4--0--|
D|--------0--2---4--5--|-4---4--0--5--4--2--0--|--------0--4---4--0--|

e|-2---2---------------|-----------------------|---------------------|
B|-3---3---------------|-----------------------|-5---5---------------|
G|-4---4---------------|-----------------------|-5---5---------------|
D|-4---4--0--2---4--5--|-4---4--0--5--4--2--0--|-5---5--0--4---4-----|
A|-2---2--0--2---4--5--|-4---4--0--5--4--2--0--|-3---3--0--4---4--0--|
D|--------0--2---4--5--|-4---4--0--5--4--2--0--|--------0--4---4--0--|
                                                               1. My

 
Verse
 Let Ring------------------------------------------------------------------------------------------
e||---0----------------|--------------------------|--------------------|--------------------------|
B||O--3----------------|--------------------------|--------------------|--------------------------|
G||---0----------------|--------------------------|--------------------|--------------------------|
D||---4----------------|--------------------------|--------------------|-----------------------0--|
A||O--2----------------|--------------------------|--------------------|--------------------4-----|
D||--------------------|--------------------------|--------------------|--------------------------|
   head, it hurts. Each day it's gettin' worse. My looks and smile have now become my curse. Tight
   head, it hurts. Each day it's gettin' worse. No sun,  my  room   has  now become my herse. Cold


Let Ring---------------------------------------------------------------------------|
e|-0------------------|------------------------|-------------------|----------------------------|
B|-3------------------|------------------------|-------------------|----------------------------|
G|--------------------|------------------------|-------------------|----------------------------|
D|--------------------|------------------------|-------------------|-------------------2--4--5--|
A|--------------------|------------------------|-------------------|-------------------2--4--5--|
D|--------------------|------------------------|-------------------|-------------------2--4--5--|
  lips, red skirt, the never ending street. Big car,   little man, my lover for a  fee.
 sores, I'm beat,  got bruises on my feet.  My  pride, these men have taken it from me.



Pre-Chorus
e|---------------------------|-----------------------|-----------------------|-----------------------|
B|-----------7--7--7---------|-2--2-----3------------|-----------7--7--7-----|-2--2-----4------------|
G|-----------7--7--7---------|-0--0-----4------------|-----------7--7--7-----|-0--0-----3------------|
D|-4---4--0--7--7--7---------|-2--2-----4---2--4--5--|-4---4-----7--7--7-----|-2--2-----3---2--4--5--|
A|-4---4--0--5--5--5--0------|-1--1-----2---2--4--5--|-4---4--0--5--5--5--0--|-1--1-----2---2--4--5--|
D|-4---4--0-----------0------|-------0------2--4--5--|-4---4--0-----------0--|-------0------2--4--5--|
          

e|---------------------------|-----------------------|-----------------------|-------------------------|
B|-----------7--7--7---------|-2--2-----3------------|-----------7--7--7-----|-2--2--2--2--2--2--2--2--|
G|-----------7--7--7---------|-0--0-----4------------|-----------7--7--7-----|-0--0--0--0--0--0--0--0--|
D|-4---4--0--7--7--7---------|-2--2-----4---2--4--5--|-4---4-----7--7--7-----|-2--2--2--2--2--2--2--2--|
A|-4---4--0--5--5--5--0------|-1--1-----2---2--4--5--|-4---4--0--5--5--5--0--|-1--1--1--1--1--1--1--1--|
D|-4---4--0-----------0------|-------0------2--4--5--|-4---4--0-----------0--|-------------------------|



Chorus
e|-2---2---------------|-----------------------|---------------------|
B|-3---3---------------|-----------------------|-5---5---------------|
G|-4---4---------------|-----------------------|-5---5---------------|
D|-4---4--0--2---4--5--|-4---4--0--5--4--2--0--|-5---5--0--4---4-----|
A|-2---2--0--2---4--5--|-4---4--0--5--4--2--0--|-3---3--0--4---4--0--|
D|--------0--2---4--5--|-4---4--0--5--4--2--0--|--------0--4---4--0--|
 

e|-2---2---------------|-----------------------|---------------------|
B|-3---3---------------|-----------------------|-5---5---------------|
G|-4---4---------------|-----------------------|-5---5---------------|
D|-4---4--0--2---4--5--|-4---4--0--5--4--2--0--|-5---5--0--4---4-----|
A|-2---2--0--2---4--5--|-4---4--0--5--4--2--0--|-3---3--0--4---4--0--|
D|--------0--2---4--5--|-4---4--0--5--4--2--0--|--------0--4---4--0--|


Interlude [First ending after chorus]
[Let most of it ring, just cancel it out in between chord changes]
e|-------------------------|-------------------------|
B|-------3-----------2~----|-------------------------|
G|-------0-----------------|-------------------------|
D|----4-----4-----2-----2--|-------4--0--------9-----|
A|-2-----------0-----------|----0-----------5--------|
D|-------------------------|-0-----------5--------0--|


e|-------------------------|--------------------------||
B|-------3-----------2~----|-------------------------O||
G|-------0-----------------|--------------------------||
D|----4-----4-----2-----2--|-------4--0--------9------|| [Back to the verse]
A|-2-----------0-----------|----0-----------5--------O||
D|-------------------------|-0-----------5--------0---||
                                              2. My


Interlude [Second ending after chorus]
e|-2---2---------------|-----------------------|---------------------|
B|-3---3---------------|-----------------------|-5---5---------------|
G|-4---4---------------|-----------------------|-5---5---------------|
D|-4---4--0--2---4--5--|-4---4--0--5--4--2--0--|-5---5--0--4---4-----|
A|-2---2--0--2---4--5--|-4---4--0--5--4--2--0--|-3---3--0--4---4--0--|
D|--------0--2---4--5--|-4---4--0--5--4--2--0--|--------0--4---4--0--|
 

e|-2---2---------------|-----------------------|---------------------|
B|-3---3---------------|-----------------------|-5---5---------------|
G|-4---4---------------|-----------------------|-5---5---------------|
D|-4---4--0--2---4--5--|-4---4--0--5--4--2--0--|-5---5--0--4---4-----|
A|-2---2--0--2---4--5--|-4---4--0--5--4--2--0--|-3---3--0--4---4--0--|
D|--------0--2---4--5--|-4---4--0--5--4--2--0--|--------0--4---4--0--|



Guitar Solo            [1/2 Bend]                                                       [1/2 Bend]
e|-------------------------------|-------------------------------|-------------------------------|Gtr. 2
B|-------------------------------|-------------------------------|-------------------------------|
G|-11--11---9--7-----------------|-------------------------------|-11--11---9--7-----------------|
D|-12--12--11--9------12--11b-r--|---------------------------12--|-12--12--11--9------12--11b-r--|
A|----------------10-------------|-12--10--9---------12--10/-----|----------------10-------------|
D|-------------------------------|------------12--9--------------|-------------------------------|
 |
 |Hold-------------------------------------------------------------------------------------------
e|-0---------------------------------------------------------------------------------------------|Gtr. 1
B|-3---------------------------------------------------------------------------------------------|
G|-0---------------------------------------------------------------------------------------------|
D|-4---------------------------------------------------------------------------------------------|
A|-2---------------------------------------------------------------------------------------------|
D|-----------------------------------------------------------------------------------------------|


e|------------------------|Gtr. 2
B|------------------------|
G|------------------------|
D|------------------------|
A|-12--10--9--------------|
D|------------12--9--9~~--|
 |
 |
e|-(0)------------------------|Gtr. 1
B|-(3)------------------------|
G|-(0)------------------------|
D|-(4)---------------2--4--5--|  [To Pre-Chorus, then Bridge]
A|-(2)---------------2--4--5--|
D|-------------------2--4--5--|


Bridge [After Pre-Chorus]
P.M.---------------------------------------------------------------------------------------------------
e|-------------------------|-------------------------|-------------------------|-------------------------|
B|-------------------------|-------------------------|-------------------------|-------------------------|
G|-------------------------|-------------------------|-------------------------|-------------------------|
D|-4--4--4-----------------|-------------------------|-4--4--4-----------------|-------------------------|
A|-2--2--2--0--2--2--4--5--|-4--4--4--4--5--4--2--0--|-2--2--2--0--2--2--4--5--|-4--4--4--4--5--4--2--0--|
D|----------0--2--2--4--5--|-4--4--4--4--5--4--2--0--|----------0--2--2--4--5--|-4--4--4--4--5--4--2--0--|


P.M.-------------------------------------------------------|
e|-------------------------|-------------------------|----------------|
B|-------------------------|-------------------------|----------------|
G|-------------------------|-------------------------|----5--5--5-----|
D|-4--4--4-----------------|-------------------------|-5--5--5--5-----| [To Chorus, then Outro]
A|-2--2--2--0--2--2--4--5--|-4--4--4--4--5--4--2--0--|-3--3--3--3--4--|
D|----------0--2--2--4--5--|-4--4--4--4--5--4--2--0--|-------------4--|


Outro
e|-2---2---------------|-----------------------|---------------------|
B|-3---3---------------|-----------------------|-5---5---------------|
G|-4---4---------------|-----------------------|-5---5---------------|
D|-4---4--0--2---4--5--|-4---4--0--5--4--2--0--|-5---5--0--4---4-----|
A|-2---2--0--2---4--5--|-4---4--0--5--4--2--0--|-3---3--0--4---4--0--|
D|--------0--2---4--5--|-4---4--0--5--4--2--0--|--------0--4---4--0--|
 

e|-2---2---------------|-----------------------|---------------------0--|
B|-3---3---------------|-----------------------|-5---5---------------3--|
G|-4---4---------------|-----------------------|-5---5---------------0--|
D|-4---4--0--2---4--5--|-4---4--0--5--4--2--0--|-5---5--0--4---4-----4--|
A|-2---2--0--2---4--5--|-4---4--0--5--4--2--0--|-3---3--0--4---4--0--2--|
D|--------0--2---4--5--|-4---4--0--5--4--2--0--|--------0--4---4--0-----|


************************************
| P.M.Palm Mute
| /   slide up
| \   slide down
| h   hammer-on
| p   pull-off
| ~   vibrato
| +   harmonic
| x   Mute note
| b   Bend
| pb  Pre-bend
| br  Bend release
| pbr Pre-bend release
| brb Bend release bend

************************************

            
            
Suggest correction
Creating personal tab
Creating personal tab
You can edit any tab online and save it as your Personal.

You can edit, replace or remove any tab part or add personal notes – all changes will be seen only by you.

Personal tabs can be accessed anytime from any device, even offline.
Learn more »
Give kudos to tab author, rate the tab!
1 2 3 4 5
comments
print report bad tab
guest
You may want to rate the tab now too:
select rating
Wanna post a correction for this tab? Suggest correction