Oops, an error
Loading. Please wait.

Sudden Movements Bass Tab

version 1
version 1

Whole song

Interactive

1,473 views 3 this week
1 commentread comment
1 2 3 4 5
1 last vote to show rating
add to favorites
launch autoscroll
font size
0
reset
guitar tuner
Autoscroll
slow
fast
+/-
esc
set tempo
stop
Help us to improve Ultimate-Guitar.com Take our survey!
×
Author
Difficulty
Tuning
intermediate
D A D G B E
tabbed by tony d

Intro/Verse:3x
G----------------|
D----------------| Play 3x
A----------------|
D-0-00-222-5-4-2-|

G--------------------|
D--------------------|
A----------5(slide)7-|
D-0-00-222-----------|

G---------|
D---------| After Verse 3x
A-------2-|
D-0-2-5---|

Pre-Chorus:1x
G------------------------------------------|
D------------------------------------------|
A--------------------------------5(slide)7-|
D-77777777-55555555-44444444-222-----------|

Chorus:1x        
G----------------|
D----------------| Play 5x
A----------------|
D-0-00-222-5-4-2-|

After 5x
G-------------------|
D-------------------| 
A---------5(slide)7-|
D-0-00-222----------|

Verse:2x
Pre-Chorus:1x
Chorus:3x
Pre-Chorus:2x
Chorus:2x

Outro:1x
G------------------------------|
D------------------------------|
A------------------------------|
D-0-00-222-5-4-2--0-00-2(ring)-|

Suggest correction
Give kudos to tab author, rate the tab!
1 2 3 4 5
comments
print report bad tab
1 comment total.
0 reply
rockabanane 152 Jan 14, 2012 02:05 PM

Great tabs!!!!!!!
Please watch my cover of the song:

http://www.youtube.com/watch?v=I5CsukhXCA0

guest
You may want to rate the tab now too:
select rating
Wanna post a correction for this tab? Suggest correction