Oops, an error
Loading. Please wait.

Surprise Surprise Bass Tab

version 1
version 1

Whole song

Interactive

11,066 views 27 this week
1 commentread comment
1 2 3 4 5
excellent!
x 8
add to favorites
launch autoscroll
font size
0
reset
guitar tuner
Tab Pro tools
  • play this tab
  • loop segment
  • change instrument
  • show fretboard
  • metronome
×
Best way to learn
"Surprise Surprise"
Autoscroll
slow
fast
+/-
esc
set tempo
stop
Contributor
Difficulty
Tuning
intermediate
D A D G B E
Surprise Surprise - Billy Talent

This is my bass tab to the amazing song 'Surprise Surprise' by Billy Talent. 
Tuning is Drop D like all other Billy Talent songs.
It should be all correct, but if not and I hope there aren't faults, leave a message.
Have fun to learn this song and please don't forget to rate! ;)

Intro
G|----------------|----------------|
D|----------------|----------------|
A|----------------|----------------|
D|0---------------|----------------|
  E E H.           F

Main Riff (2x)
G|----------------|----------------|----------------|----------------|
D|----------------|----------------|----------------|----------------|
A|----------------|----------------|--------------5-|3-3-3-3-3-------|
D|0-0-0-0-0-3-5-6-|0-0-0-0-0-3-5-6-|0-0-0-0-0-5-7---|----------6-5-3-|
  E E E E E E E E  E E E E E E E E  E E E E E E E E  E E E E E E E E

Verse
G|----------------|----------------|----------------|----------------|
D|----------------|----------------|----------------|----------------|
A|--5-5-5-5-------|--3-3-3-3-------|----------------|--5-5-5-5-------|
D|----------------|----------------|--7-7-7-7-------|----------------|
  E E E E E E Q    E E E E E E Q    E E E E E E Q    E E E E E E Q

G|----------------|----------------|----------------|----------------|
D|----------------|----------------|----------------|----------------|
A|--5-5-5-5-------|--3-3-3-3-------|----------------|--5-5-5-5-------|
D|----------------|----------------|--7-7-7-7-------|----------0-2-3-|
  E E E E E E Q    E E E E E E Q    E E E E E E Q    E E E E E E E E

Pre-Chorus
G|----------------|----------------|----------------|----------------|
D|----------------|----------------|----------------|----------------|
A|----------------|----------------|----------------|----------------|
D|5-5-5-5-5-5-5-5-|0-0-0-0-0-0-0-0-|5-5-5-5-5-5-5-5-|0-0-0-0-0-0-8-7-|
  E E E E E E E E  E E E E E E E E  E E E E E E E E  E E E E E E E E

G|----------------|----------------|----------------|----------------|
D|----------------|----------------|----------------|----------------|
A|----------------|5-5-5-5-5-5-5-5-|3-3-3-3-3-3-3-3-|--------------3-|
D|5-5-5-5-5-5-5-5-|----------------|----------------|7-7-7-7-3-5-7---|
  E E E E E E E E  E E E E E E E E  E E E E E E E E  E E E E E E E E

Chorus
G|----------------|----------------|----------------|----------------|
D|----------------|----------------|----------------|----------------|
A|5-5-5-5-5-5-5/8~|3-3-3-3-3-3-3/8~|----------------|--------------3-|
D|----------------|----------------|7-7-7-7-7-7-7\3~|0-0-0-0-0-5-7---|
  E E E E E E Q    E E E E E E Q    E E E E E E Q    E E E E E E E E

G|----------------|----------------|----------------|----------------|
D|----------------|----------------|----------------|----------------|
A|5-5-5-5-5-5-5/8~|3-3-3-3-3-3-3/8~|----------------|----------------|
D|----------------|----------------|7-7-7-7-7-7-7\3~|0-0-0-0-0-------|
  E E E E E E Q    E E E E E E Q    E E E E E E Q    E E E E E E Q

Main Riff (1x)

Verse 2
G|----------------|----------------|----------------|----------------|
D|----------------|----------------|----------------|----------------|
A|--5-5-5-5-------|--3-3-3-3-------|----------------|--5-5-5-5-------|
D|----------------|----------------|--7-7-7-7-------|----------------|
  E E E E E E Q    E E E E E E Q    E E E E E E Q    E E E E E E Q

G|----------------|----------------|----------------|----------------|
D|----------------|----------------|----------------|----------------|
A|--5-5-5-5-------|--3-3-3-3-------|----------------|--5-5-5-5---5-5-|
D|----------------|----------------|--7-7-7-7-------|----------------|
  E E E E E E Q    E E E E E E Q    E E E E E E Q    E E E E E E E E

Bridge
G|----------------|----------------|----------------|----------------|
D|----------------|----------------|----------------|----------------|
A|--5-5-5-5-3-3/8~|--3-3-3-3-1-1/7~|----------------|----------------|
D|----------------|----------------|--7-7-7-7-5-7~~~|--0-0-0-0---0-0-|
  E E E E E E Q    E E E E E E Q    E E E E E E Q    E E E E E E E E

G|----------------|----------------|----------------|----------------|
D|----------------|----------------|----------------|----------------|
A|--5-5-5-5-3-3/8~|--3-3-3-3-1-1/7~|----------------|--5-5-5-5-------|
D|----------------|----------------|--7-7-7-7-5-7~~~|----------0-2-3-|
  E E E E E E Q    E E E E E E Q    E E E E E E Q    E E E E E E E E

Pre-Chorus

Chorus 2
G|----------------|----------------|----------------|----------------|
D|----------------|----------------|----------------|----------------|
A|5-5-5-5-5-5-5/8~|3-3-3-3-3-3-3/8~|----------------|--------------3-| 3x
D|----------------|----------------|7-7-7-7-7-7-7\3~|0-0-0-0-0-5-7---|
  E E E E E E Q    E E E E E E Q    E E E E E E Q    E E E E E E E E

G|----------------|----------------|----------------|----------------|
D|----------------|----------------|----------------|----------------|
A|5-5-5-5-5-5-5/8~|3-3-3-3-3-3-3/8~|----------------|----------------|
D|----------------|----------------|7-7-7-7-7-7-7\3~|0-0-0-0-0-6-5-3-|
  E E E E E E Q    E E E E E E Q    E E E E E E Q    E E E E E E E E

Bass while Guitar Solo
G|----------------|----------------|----------------|----------------|
D|----------------|----------------|----------------|----------------|
A|----------------|----------------|----------------|------------3-5-|
D|0-0-0-0-0-3-5-6-|7-7-7-7-7-7-7-6-|5-5-5-5-5-6-5-3-|0-0-0-0-0-7-----|
  E E E E E E E E  E E E E E E E E  E E E E E E E E  E E E E E E E E

G|----------------|----------------|----------------|----------------|
D|----------------|----------------|----------------|----------------|
A|----------------|----------------|----------------|5-3-------------|
D|0-0-0-0-0-3-5-6-|7-7-7-7-7-7-7-6-|5-5-5-5-5-6-5-3-|----7-5-3-0-2-3-|
  E E E E E E E E  E E E E E E E E  E E E E E E E E  E E E E E E E E

Pre-Chorus
Chorus 2

Outro
G|------|---|----------------|----------------|----------------|------|
D|------|---|----------------|----------------|----------------|------|
A|------|---|5-5-5-5-5-------|5-5-5-5-5-------|5-5-5-5-5-------|------|
D|0-----|---|----------3-5-6-|----------3-5-6-|----------6-5-3-|0-----|
  E E H. F   E E E E E E E E  E E E E E E E E  E E E E E E E E  E E H.

Legend
F = Full note
H = Half note
Q = Quarter note
E = Eighth note
S = Sixteenth note
. = makes the note a half longer
\ = Slide up
/ = Slide down
h = Hammer-on
p = Pull-off
b = Bending
X = Mute note
comments
print report bad tab
1 comment total.
0 reply
patrick.korber. wrote on May 19 2013, 08:17 am

Seems right, but why´s there a part ,,Bridge" and a part ,,Bass while guitar solo"? (The part of the guitar solo is auctually called ,,Bridge")

I want to post or [tab]
guest
You may want to rate the tab now too:
select rating
Please do not post tabs as comments. Select "correction" instead!