Oops, an error
Loading. Please wait.

Surrender Bass Tab

version 2
version 2

Interactive

3,293 views 6 this week
5 commentsread comments
1 2 3 4 5
worth learning
x 4
add to favorites
launch autoscroll
font size
0
reset
guitar tuner
Autoscroll
slow
fast
+/-
esc
set tempo
stop
Help us to improve Ultimate-Guitar.com Take our survey!
×
Author
Difficulty
novice
----------------------------------------------------------------------
19 mars 2007
                              BIllY TALENT
----------------------------------------------------------------------
                               SURRENDER
                  
                          tabbed by schplutch




------------
verse
------------

0mn08

G|---------------------7---7---10-9-7--------------------------|
D|--77777777-55555555----7---7--------9-10-10-10-10------------| x1
A|---------------------------------------------------7777------|
D|-------------------------------------------------------------|

G|---------------------------------------|
D|---------------------------------------|  x2
A|--------------3------------------------|
D|-5----3---0-------3--------------------|

G|---------------------------------------------|
D|---------------------------------------------|  x2
A|--------------------5---5---8-7--------------|
D|-55555555-33333333----5---5-----8-7-8888-0000|



----------------
Chorus:
----------------

0mn49

G|------------------------------------------------|
D|------------------------------------------------| x2
A|------------------------------------------------|
D|-111111111-33333333-55555555-00000000-----------|

G|--------------------------|
D|--------------------------| x1
A|--------------------5-----|
D|--11111111-33333333-------|


----------------
Verse 2 : 
----------------

1mn13


G|---------------------7---7---10-9-7--------------------------|
D|--77777777-55555555----7---7--------9-10-10-10-10------------| x1
A|---------------------------------------------------7777------|
D|-------------------------------------------------------------|

G|---------------------------------------------|
D|---------------------------------------------|  x2
A|--------------------5---5---8-7--------------|
D|-55555555-33333333----5---5-----8-7-8888-0000|


----------------
Chorus
----------------

1mn37
G|------------------------------------------------|
D|------------------------------------------------| x2
A|------------------------------------------------|
D|-111111111-33333333-55555555-00000000-----------|

G|--------------------------|
D|--------------------------| x1
A|--------------------5-----|
D|--11111111-33333333-------|


-----------------
Brigde
-----------------

2mn01

G|--------------------------------------------------------------------|
D|---------------------------------------77777777-88888888------------|x2
A|---7-7-7-777-8888-888--5-5-5-555-7777--------------------5555-33----|
D|-----------------------------------------------------------------2--|

G|--------------------------------------------------------|
D|--------------------------------------------------------|x1
A|-5555-33-----5555-33------5555-3-2----------------------|
D|----------2-----------2------------3--------------------|

---------------
Break :
---------------
2mn42

G|---------------------------------------|
D|---------------------------------------|  x3
A|---------------------------------------|
D|-1----3---5----0-----------------------|

----------------
Chorus
----------------

3mn06

G|------------------------------------------------|
D|------------------------------------------------| x5
A|------------------------------------------------|
D|-111111111-33333333-55555555-00000000-----------|

G|-----------------------------------|
D|-----------------------------------| x1
A|---------------------5-3----3-2-0--|
D|--11111111-33333333-------0--------|





jemangeduchien@hotmail.com



------------------------------------> SWISS TAB
Suggest correction
comments
print report bad tab
5 comments total. Showing first comments.
0 reply
schplutch 31 wrote on March 23 2007, 08:26 am

I did some errors, there is no break and i'ts

7---7---10-9-7--------------
--7---7---------8-9999-7777-

and not

7---7---10-9---------------
--7---7------9-8-9999-7777-

+1 reply
snakeyes9510 278 wrote on April 14 2007, 04:27 pm

7---7---10-9-7------------------------
--7---7--------9-10-10-10-10----------
-----------------------------7-7-7-7--
--------------------------------------
is correct.

0 reply
snakeyes9510 278 wrote on April 14 2007, 04:28 pm

Bridge isn't right either.

guest
You may want to rate the tab now too:
select rating
Wanna post a correction for this tab? Suggest correction