Oops, an error
Loading. Please wait.

Surrender Bass Tab

version 3
version 3

Interactive

1,858 views 1 this week
3 commentsread comments
1 2 3 4 5
worth learning
x 5
add to favorites
launch autoscroll
font size
0
reset
guitar tuner
Autoscroll
slow
fast
+/-
esc
set tempo
stop
Help us to improve Ultimate-Guitar.com Take our survey!
×
Author
----------------------------------------------------------------------------
			     Surrender - Billy Talent
----------------------------------------------------------------------------

Tabbed By : Nico Drudge
e-mail: masterbasser95@hotmail.com

Tuning: DADG

Intro 1
G|---------------------------------7---7---10-9-7------------------------|
D|-7-7-7-7-7-7-7-7-5-5-5-5-5-5-5-5---7---7--------9-10-10-10-10----------|
A|--------------------------------------------------------------7-7-7-7--|
D|-----------------------------------------------------------------------|

Verse 1
G|-----------------------------------------------------------------|
D|-----------------------------------------------------------------| *2x*
A|--------------------------------------------------------------7--|
D|-7---------------5---------------0----------------10-------------|

G|----------------------------------------------------------------------|
D|----------------------------------------------------------------------|
A|---------------------------------5---5---8-7-5------------------------|
D|-7-7-7-7-7-7-7-7-5-5-5-5-5-5-5-5---7---7-------9-10-10-10-10-2-2-2-2--|

G|--------------------------------------------------------------------|
D|--------------------------------------------------------------------|
A|---------------------------------5---5---8-7-5----------------------|
D|-7-7-7-7-7-7-7-7-5-5-5-5-5-5-5-5---7---7-------9-10-10-10-10-2-2-2--|

Chorus 1
G|------------------------------------------------------------------|
D|------------------------------------------------------------------| *2x*
A|------------------------------------------------------------------|
D|-3-3-3-3-3-3-3-3-5-5-5-5-5-5-5-5-7-7-7-7-7-7-7-7-0-0-0-0-0-0-0-2--|

G|------------------------------------|
D|------------------------------------|
A|------------------------------------|
D|-3-3-3-3-3-3-3-3-5-5-5-5-5-5-5-5-0--|

Intro 2
G|---------------------------------7---7---10-9-7------------------------|
D|-7-7-7-7-7-7-7-7-5-5-5-5-5-5-5-5---7---7--------9-10-10-10-10----------|
A|--------------------------------------------------------------7-7-7-7--|
D|-----------------------------------------------------------------------|

Verse 2
G|----------------------------------------------------------------------|
D|----------------------------------------------------------------------|
A|---------------------------------5---5---8-7-5------------------------|
D|-7-7-7-7-7-7-7-7-5-5-5-5-5-5-5-5---7---7-------9-10-10-10-10-2-2-2-2--|

G|--------------------------------------------------------------------|
D|--------------------------------------------------------------------|
A|---------------------------------5---5---8-7-5----------------------|
D|-7-7-7-7-7-7-7-7-5-5-5-5-5-5-5-5---7---7-------9-10-10-10-10-2-2-2--|

Chorus 2
G|------------------------------------------------------------------|
D|------------------------------------------------------------------| *2x*
A|------------------------------------------------------------------|
D|-3-3-3-3-3-3-3-3-5-5-5-5-5-5-5-5-7-7-7-7-7-7-7-7-0-0-0-0-0-0-0-2--|

G|----------------------------------------------------------|
D|----------------------------------------------------------|
A|----------------------------------------------------------|
D|-3-3-3-3-3-3-3-3-5-5-5-5-5-5-5-5-0-0-0-0-0-0-0-0-0-0-0-0--|

Bridge
G|------------------------------------------------------------------|
D|------------------------------------------------------------------|
A|------------------------------------------------------------------|
D|-7-7-7-7-7-7-7-8-8-8-8-8-8-8-8-7-3-3-3-3-3-3-3-5-5-5-5-5-5-5-5-5--|

G|-----------------------------------------------------------|
D|-7-7-7-7-7-7-7-8-8-8-8-8-8-8-8-8---------------------------|
A|---------------------------------5--5-5--5-5-3--3-3--------|
D|-----------------------------------------------------2--2--|

G|------------------------------------------------------------------|
D|------------------------------------------------------------------|
A|------------------------------------------------------------------|
D|-7-7-7-7-7-7-7-8-8-8-8-8-8-8-8-7-3-3-3-3-3-3-3-5-5-5-5-5-5-5-5-5--|

G|----------------------------------|
D|-7-7-7-7-7-7-7-8-8-8-8-8-8-8-8-8--|
A|----------------------------------|
D|----------------------------------|

G|---------------------------|
D|---------------------------| *2x*
A|-5--5-5--5-5-3--3-3--------|
D|---------------------2--2--|

G|--------------------|
D|--------------------| 
A|-5--5-5--5-5--3-----|
D|-----------------5--|

Chorus 3
G|----------------------------------------------------|
D|----------------------------------------------------|
A|----------------------------------------------------|
D|-3---------------5---------------7---------------0--|

G|------------------------------------------------------------------|
D|------------------------------------------------------------------|
A|------------------------------------------------------------------|
D|-3-3-3-3-3-3-3-3-5-5-5-5-5-5-5-5-7-7-7-7-7-7-7-7-0-0-0-0-0-0-0-0--|

G|----------------------------------------------------------------|
D|----------------------------------------------------------------|
A|-------------------------------------------------5-5-5-5-5-5-5--|
D|-3-3-3-3-3-3-3-3-5-5-5-5-5-5-5-5-7-7-7-7-7-7-7-7----------------|

G|------------------------------------------------------------------|
D|------------------------------------------------------------------|
A|-------------------------------------------------5-5-5-5-5-5-5-5--|
D|-3-3-3-3-3-3-3-3-5-5-5-5-5-5-5-5-7-7-7-7-7-7-7-7------------------|

G|------------------------------------------------------------------|
D|------------------------------------------------------------------|
A|-------------------------------------------------5-5-5-5-3-2-0----|
D|-3-3-3-3-3-3-3-3-5-5-5-5-5-5-5-5-7-7-7-7-7-7-7-7---------------5--|

G|------------------------------------------------------------------|
D|------------------------------------------------------------------| *3x*
A|-------------------------------------------------5-5-5-5-5-5-5-5--|
D|-3-3-3-3-3-3-3-3-5-5-5-5-5-5-5-5-7-7-7-7-7-7-7-7------------------|

G|------------------------------------------|
D|------------------------------------------| 
A|-8-8-8-8-8-8-8-8-10-10-10-10-10-10-10-10--|
D|------------------------------------------|

Outro
G|-----------------------------------------------------------------|
D|-----------------------------------------------------------------|
A|-----------------------------------------------------------------|
D|-7---------------5---------------0----------------10----------9--|

End On
G|----|
D|----|
A|----|
D|-7--|

| /  slide up
| \  slide down
| h  hammer-on
| p  pull-off
| ~  vibrato
| +  harmonic
| x  Mute note
============================================================================
Suggest correction new What's this?
You can suggest a correction to this tab. Community and Mods will review your correction and vote to approve or reject it.
comments
print report bad tab
3 comments total.
0 reply
snakeyes9510 660 wrote on April 14 2007, 04:20 pm

There is a minor mistake here, during the verses, the last note, A, should be E. I corrected it and should be up tomorrow.

0 reply
schplutch 42 wrote on April 18 2007, 10:16 am

there a lot of errors... try my version (2), but i did errors too, the corrections are in the comments.

0 reply
snakeyes9510 660 wrote on April 19 2007, 11:01 pm

where are the errors? can you please point them out because I think differently.

guest
You may want to rate the tab now too:
select rating
Please do not post tabs as comments. Select "correction" instead!