Oops, an error
Loading. Please wait.
We have an official Surrender tab made by UG professional guitarists. Check out the tab »
×
31,169 views 15 this week
2 commentsread comments
1 2 3 4 5
x 7
add to favorites
×
Save as Personal and add changes to this tab that will be seen only by you. Learn more ›
×
You can save this tab as Personal to edit and correct it or add notes. All changes will be seen only by you. Learn more »
launch autoscroll
font size
0
reset
how to read this tab
guitar tuner
edit
Autoscroll
slow
fast
+/-
esc
set tempo
stop
Author
--------------------------------------------------------------------------------------------------
                                       SURRENDER - Billy Talent
--------------------------------------------------------------------------------------------------
Tabbed by ... Mark M
Email     ... billytalentpunk0@hotmail.com

Tuning    ... Drop D Tuning (DADGBe)


INTRO: (x2)

e|------7-----7------|------8-----8------|--------12-------12--------|-------10-----|-----------|
B|------0-----0------|------0-----0------|--------0--------0---------|-------0------|------9----|
G|----5-----5---4----|----0-----0---0----|-----10-------10----10-----|-----9--------|----7------|
D|--7-----7-------7--|--5-----5-------5--|--12-------12----------12--|--10------10--|--9-----9--|
A|-------------------|-------------------|---------------------------|--------------|-----------|
D|-------------------|-------------------|---------------------------|--------------|-----------|


VERSE: (x2)
                        (use your fingers
                         to pluck strings)
e|--5-------------------10----------------------------------------------------------------------|
B|--5-------------------0-------------------6---------------------------5--------------0--------|
G|--5-------------------0-------------------7---------------------------5--------------1--------|
D|--7---------------------------------------7---------------------------5--------------2--------|
A|----------------------10----------------------------------------------------------------------|
D|----------------------------------------------------------------------------------------------|

e|----------------------------------------------------------------------------------------------|
B|--1-------------------3------------------/6---------------------------5--------------5--------|
G|--2-------------------4------------------/7---------------------------5--------------4--------|
D|--2-------------------5------------------/7---------------------------5--------------6--------|
A|----------------------------------------------------------------------------------------------|
D|----------------------------------------------------------------------------------------------|

The second time VERSE is played through,
another guitar plays this on top of it:
                                                                                   x2
e|-------------------|-------------------|-------------------|-----------|-----------|
B|--5-5-5-5-5-5-5-5--|--6-6-6-6-6-6-6-6--|--6-6-6-6-6-6-6-6--|--5-5-5-5--|--5-5-5-5--|
G|--5-5-5-5-5-5-5-5--|--7-7-7-7-7-7-7-7--|--7-7-7-7-7-7-7-7--|--5-5-5-5--|--4-4-4-4--|
D|-------------------|-------------------|-------------------|-----------|-----------|
A|-------------------|-------------------|-------------------|-----------|-----------|
D|-------------------|-------------------|-------------------|-----------|-----------|


CHORUS:
                                                                                 x2
e|-------------------|-------------------|---------------------|----------0-----0--|
B|-------------------|-------------------|-----------0---------|------------5------|
G|----------0--------|----------0--------|-------------0-------|------2------------|
D|------7-----7------|------9-----9------|------10-------10----|--------4-----4----|
A|----3---3-----3----|----5---5-----5----|----7----7--------7--|----0--------------|
D|--3-------------3--|--5-------------5--|--7------------------|--0----------------|

                                           H
e|-------------------|-------------------|-----------------------------------------|
B|-------------------|-------------------|-5---------------------------------------|
G|----------0--------|----------0--------|-2---------------------------------------|
D|------7-----7------|------9-----9------|-0---------------------------------------|
A|----3---3-----3----|----5---5-----5----|-0---------------------------------------|
D|--3-------------3--|--5-------------5--|-0---------------------------------------|


INTRO: (x1)


VERSE: (x1) (with other guitar playing over it)


CHORUS: (Same as above)


BRIDGE:

PART 1: (x2)

e|-------------------|-------------------|-------------------|-------------------|
B|-------------------|-------------------|--5-5-5-5-5-5-5-5--|-------------------|
G|--9-9-9-9-9-9-9-9--|--9-9-9-9-9-9-9-9--|--5-5-5-5-5-5-5-5--|--7-7-7-7-7-7-7-7--|
D|--7-7-7-7-7-7-7-7--|--8-8-8-8-8-8-8-8--|--3-3-3-3-3-3-3-3--|--5-5-5-5-5-5-5-5--|
A|--7-7-7-7-7-7-7-7--|--8-8-8-8-8-8-8-8--|--3-3-3-3-3-3-3-3--|--5-5-5-5-5-5-5-5--|
D|--7-7-7-7-7-7-7-7--|--8-8-8-8-8-8-8-8--|--3-3-3-3-3-3-3-3--|--5-5-5-5-5-5-5-5--|

e|-------------------|-------------------|--0----0-0----0----0---0---------------|
B|-------------------|-------------------|--5----5-5----5----5---5----5----5-----|
G|--9-9-9-9-9-9-9-9--|--9-9-9-9-9-9-9-9--|--2----2-2----2----0---0----4----4-----|
D|--7-7-7-7-7-7-7-7--|--8-8-8-8-8-8-8-8--|--0----0-0----0----5---5----2----2-----|
A|--7-7-7-7-7-7-7-7--|--8-8-8-8-8-8-8-8--|--0----0-0----0----3---3----2----2-----|
D|--7-7-7-7-7-7-7-7--|--8-8-8-8-8-8-8-8--|--0----0-0----0-------------2----2-----|

PART 2:

e|--0----0-0----0----0---0---------------|
B|--5----5-5----5----5---5----5-----5----|
G|--2----2-2----2----0---0----4-----4----|
D|--0----0-0----0----5---5----2-----2----|
A|--0----0-0----0----3---3----2-----2----|
D|--0----0-0----0-------------2-----2----|

e|--0----0-0----0--------0---------------|
B|--5----5-5----5--------5----------5----|
G|--2----2-2----2--------0----------4----|
D|--0----0-0----0--------5----------2----|
A|--0----0-0----0--------3----------2----|
D|--0----0-0----0-------------------2----|


At the first note of CHORUS, another guitar plays:
e|-----|
B|-----|
G|-----|
D|--3--|
A|--3--|
D|--3--|
which is held until it fades out.

CHORUS:
                                                                                 x8
e|-------------------|-------------------|---------------------|----------0-----0--|
B|-------------------|-------------------|-----------0---------|------------5------|
G|----------0--------|----------0--------|-------------0-------|------2------------|
D|------7-----7------|------9-----9------|------10-------10----|--------4-----4----|
A|----3---3-----3----|----5---5-----5----|----7----7--------7--|----0--------------|
D|--3-------------3--|--5-------------5--|--7------------------|--0----------------|

e|-------------------|-------------------|
B|-------------------|-------------------|
G|----------0--------|----------0--------|
D|------7-----7------|------9-----9------|
A|----3---3-----3----|----5---5-----5----|
D|--3-------------3--|--5-------------5--|


OUTRO:

e|------7-----7------|-------8------8-------|--------12-------12--------|-------10-----|----------|
B|------0-----0------|-------0------0-------|--------0--------0---------|-------0------|------9---|
G|----5-----5---4----|-----0------0---0-----|-----10-------10----10-----|-----9--------|----7-----|
D|--7-----7-------7--|----------------------|--12-------12----------12--|--10------10--|--9-----9-|
A|-------------------|--10-----10-------10--|---------------------------|--------------|----------|
D|-------------------|----------------------|---------------------------|--------------|----------|

    H
e|--7----------------|
B|--0----------------|
G|--5----------------|
D|--7----------------|
A|-------------------|
D|-------------------|


| H  hold chord/note
| /  slide up
| \  slide down
| h  hammer-on
| p  pull-off
| ~  vibrato
| +  harmonic
| x  Mute note
==================================================================================================
Suggest correction
Creating personal tab
Creating personal tab
You can edit any tab online and save it as your Personal.

You can edit, replace or remove any tab part or add personal notes – all changes will be seen only by you.

Personal tabs can be accessed anytime from any device, even offline.
Learn more »
comments
print report bad tab
2 comments total.
0 reply
whomp.rawr.meow 10 Mar 18, 2010 06:19 PM

wow . sorry but the whole thing is terribly wrong lol .

+1 reply
pizzamampff 436 Dec 20, 2010 05:14 AM

i like your bridge part more than in the higher rated versions..but the verse doesnt sound right

guest
You may want to rate the tab now too:
select rating
Wanna post a correction for this tab? Suggest correction