Oops, an error
Loading. Please wait.

Surrender Bass Tab

version 4
3,766 views 3 this week
5 commentsread comments
1 2 3 4 5
worth learning
x 9
add to favorites
launch autoscroll
font size
0
reset
guitar tuner
Tab Pro tools
  • play this tab
  • loop segment
  • change instrument
  • show fretboard
  • metronome
×
Best way to learn
"Surrender"
Autoscroll
slow
fast
+/-
esc
set tempo
stop
Tuning
D A D G B E
Intro:1x
G|-----------------------------------------|
D|-------555555---------3-2-0--------------|
A|-000000-------0-5-0-5-------2-3333-------|
D|-----------------------------------2222--|

Verse part 1:2x                                 
G|----------------------------------------|
D|----------------------------------------|
A|-0-(ring)-------5(ring)-3(ring)---------|
D|---------5(ring)---------------2(ring)--|

Verse part 2:2x
G|----------------------------------------|
D|----------------------3-2-0-------------|
A|-0-(ring)-------5-0-5-------2-3333------|
D|---------5(ring)-------------------2222-|

Chorus part 1:2x 
G|----------------------------------------|
D|----------------------------------------|
A|--------------- 0000000(55555555)-------|
D|--33333335555555--------00000000--------|

Chorus part 2:1x
G|--------------------|
D|--------------------|
A|------------5(ring)-|
D|-3333355555---------|

Post Chorus:1x
G|-----------------------------------------|
D|-------555555---------3-2-0--------------|
A|-000000-------0-5-0-5-------2-3333-------|
D|-----------------------------------2222--|


Verse part 1:2x                                 
G|----------------------------------------|
D|----------------------------------------|
A|-0-(ring)-------5(ring)-3(ring)---------|
D|---------5(ring)---------------2(ring)--|

Verse part 2:2x
G|----------------------------------------|
D|----------------------3-2-0-------------|
A|-0-(ring)-------5-0-5-------2-3333------|
D|---------5(ring)-------------------2222-|

Chorus part 1:2x 
G|----------------------------------------|
D|----------------------------------------|
A|--------------- 0000000(55555555)-------|
D|--33333335555555--------00000000--------|

Chorus part 2:1x
G|--------------------|
D|--------------------|
A|------------5(ring)-|
D|-3333355555---------|

Bridge part 1:1x
G|--------------------------------------------------|
D|--------------------------------------------------|
A|-0000000111111111----------------0000000111111111-|
D|-----------------333333335555555------------------|

Bridge part 2:1x
G|-------------|
D|-------------|
A|--5-555-33---|
D|-----------2-|

Bridge part 1:1x
G|--------------------------------------------------|
D|--------------------------------------------------|
A|-0000000111111111----------------0000000111111111-|
D|-----------------333333335555555------------------|

Bridge part 3:1x
G|------------------------------------------------------|
D|------------------------------------------------------|
A|-5-555-33---5-555-33---5-555-3-2----------------------|
D|----------2----------2-----------3(ring)--------------|

Post Bridge:3x
G|---------------------------------------|
D|---------------------------------------|
A|------------------0(ring)--------------|
D|--3(ring)-5(ring)--------0(ring)-------|

Chorus part 1:6x 
G|----------------------------------------|
D|----------------------------------------|
A|--------------- 0000000(55555555)-------|
D|--33333335555555--------00000000--------|

Chorus part 2:1x
G|--------------------|
D|--------------------|
A|------------5(ring)-|
D|-3333355555---------|

Outro:1x
G|---------------------------------------|
D|---------------------------------------|
A|----5(ring)-3(ring)-2(ring)-0(ring)----|
D|---------------------------------------|
comments
print report bad tab
5 comments total. Showing first comments.
-1 reply
monachima505 wrote on June 18 2007, 04:26 pm

copiers suck ass

-1 reply
random_iro wrote on July 8 2007, 02:49 pm

man you copied version 1 so bad!

-1 reply
slimtim333 wrote on August 15 2007, 06:06 am

copy sucks

I want to post or [tab]
guest
You may want to rate the tab now too:
select rating
Please do not post tabs as comments. Select "correction" instead!