Oops, an error
Loading. Please wait.
We have an official Surrender tab made by UG professional guitarists. Check out the tab »
×
10,073 views 3 this week
5 commentsread comments
1 2 3 4 5
x 7
add to favorites
×
Save as Personal and add changes to this tab that will be seen only by you. Learn more ›
×
You can save this tab as Personal to edit and correct it or add notes. All changes will be seen only by you. Learn more »
launch autoscroll
font size
0
reset
how to read this tab
guitar tuner
edit
Autoscroll
slow
fast
+/-
esc
set tempo
stop
----------------------------------------------------------------------------
                             Surrender - Billy Talent
----------------------------------------------------------------------------



I don't know why this wasn't accepted yesterday. The votes were completely in favour it getting accepted.

I suppose I'll try again, this time with better labeling. Thank you!

 



Gtr I (D A D G B E) - 'Untitled'
Gtr II (D A D G B E) - 'Untitled'




Intro:
  Gtr I
  E E E E E E E E   E E E E E E E E
|-----7-----7-----|-----8-----8-----|
|-----------------|-----------------|
|---5-----5---5---|---0-----0-----0-|
|-7-----7-------7-|-5-----5-----5---|
|-----------------|-----------------|
|-----------------|-----------------|


   E  E  E  E  E  E  E  E    E E  E  E E E E E
|-------12-------12-------|------10------------|
|-------------------------|----------------9---|
|----10-------10----10----|----9---------7---7-|
|-12-------12----------12-|-10------10-9-------|
|-------------------------|--------------------|
|-------------------------|--------------------|


  E E E E E E E E   E E E E E E E E
|-----7-----7-----|-----8-----8-----|
|-----------------|-----------------|
|---5-----5---5---|---0-----0-----0-|
|-7-----7-------7-|-5-----5-----5---|
|-----------------|-----------------|
|-----------------|-----------------|


   E  E  E  E  E  E  E  E    E E  E  E E E E E
|-------12-------12-------|------10------------|
|-------------------------|----------------9---|
|----10-------10----10----|----9---------7---7-|
|-12-------12----------12-|-10------10-9-------|
|-------------------------|--------------------|
|-------------------------|--------------------|



Verse:
  W          W           W           H    H
|----------|----------|-----------|------------|
|----------|----------|-----------|------------|
|-5--------|-7--------|-10--------|--9----9----|
|-7--------|-5--------|-12--------|-10----9----|
|----------|----------|-----------|------------|
|----------|----------|-----------|------------|


  W          W           W           H    H
|----------|----------|-----------|------------|
|----------|----------|-----------|------------|
|-5--------|-7--------|-10--------|--9----9----|
|-7--------|-5--------|-12--------|-10----9----|
|----------|----------|-----------|------------|
|----------|----------|-----------|------------|


  W          W           W           H    H
|----------|----------|-----------|------------|
|----------|----------|-----------|------------|
|-5--------|-7--------|-10--------|--9----9----|
|-7--------|-5--------|-12--------|-10----9----|
|----------|----------|-----------|------------|
|----------|----------|-----------|------------|


  W          W           W           H    Q Q
|----------|----------|-----------|-------------|
|----------|----------|-----------|-------------|
|-5--------|-7--------|-10--------|--9----9-----|
|-7--------|-5--------|-12--------|-10----9-----|
|----------|----------|-----------|-------------|
|----------|----------|-----------|-------------|


Chorus:
  E E E E E E E E   E E E E E E E E   E E  E E E E  E E   E E E E E E E E
|-----------------|-----------------|-------------------|-----------0---0-|
|-----------------|-----------------|----------0--------|---------5-------|
|---------0-------|---------0-------|------------0------|-----2-------2---|
|-----7-----7-----|-----9-----9-----|-----10-------10---|-------4---------|
|---3---3-----3---|---5---5-----5---|---7----7--------0-|---0-------------|
|-3-------------3-|-5-------------5-|-7-----------------|-0---------------|


  E E E E E E E E   E E E E E E E E   E E  E E E E  E E   E E E E E E E E
|-----------------|-----------------|-------------------|-----------0---0-|
|-----------------|-----------------|----------0--------|---------5-------|
|---------0-------|---------0-------|------------0------|-----2-------2---|
|-----7-----7-----|-----9-----9-----|-----10-------10---|-------4---------|
|---3---3-----3---|---5---5-----5---|---7----7--------0-|---0-------------|
|-3-------------3-|-5-------------5-|-7-----------------|-0---------------|


  E E E E E E E E   E E E E E E E E   W          +W
|-----------------|-----------------|-0--------|-(0)----|
|-----------------|-----------------|-5--------|-(5)----|
|---------0-------|---------0-------|-5--------|-(5)----|
|-----7-----7-----|-----9-----9-----|-0--------|-(0)----|
|---3---3-----3---|---5---5-----5---|-5--------|-(5)----|
|-3-------------3-|-5-------------5-|----------|--------|



Post-chorus:
  E E E E E E E E   E E E E E E E E
|-----7-----7-----|-----8-----8-----|
|-----------------|-----------------|
|---5-----5---5---|---0-----0-----0-|
|-7-----7-------7-|-5-----5-----5---|
|-----------------|-----------------|
|-----------------|-----------------|


   E  E  E  E  E  E  E  E    E E  E  E E E E E
|-------12-------12-------|------10------------|
|-------------------------|----------------9---|
|----10-------10----10----|----9---------7---7-|
|-12-------12----------12-|-10------10-9-------|
|-------------------------|--------------------|
|-------------------------|--------------------|



Verse:
  W          W           W           H    H
|----------|----------|-----------|------------|
|----------|----------|-----------|------------|
|-5--------|-7--------|-10--------|--9----9----|
|-7--------|-5--------|-12--------|-10----9----|
|----------|----------|-----------|------------|
|----------|----------|-----------|------------|


  W          W           W           H    Q  Q
|----------|----------|-----------|-------------|
|----------|----------|-----------|-------------|
|-5--------|-7--------|-10--------|--9----9-----|
|-7--------|-5--------|-12--------|-10----9-----|
|----------|----------|-----------|-------------|
|----------|----------|-----------|-------------|



Chorus:
  E E E E E E E E   E E E E E E E E   E E  E E E E  E E   E E E E E E E E
|-----------------|-----------------|-------------------|-----------0---0-|
|-----------------|-----------------|----------0--------|---------5-------|
|---------0-------|---------0-------|------------0------|-----2-------2---|
|-----7-----7-----|-----9-----9-----|-----10-------10---|-------4---------|
|---3---3-----3---|---5---5-----5---|---7----7--------0-|---0-------------|
|-3-------------3-|-5-------------5-|-7-----------------|-0---------------|


  E E E E E E E E   E E E E E E E E   E E  E E E E  E E   E E E E E E E E
|-----------------|-----------------|-------------------|-----------0---0-|
|-----------------|-----------------|----------0--------|---------5-------|
|---------0-------|---------0-------|------------0------|-----2-------2---|
|-----7-----7-----|-----9-----9-----|-----10-------10---|-------4---------|
|---3---3-----3---|---5---5-----5---|---7----7--------0-|---0-------------|
|-3-------------3-|-5-------------5-|-7-----------------|-0---------------|


  E E E E E E E E   E E E E E E E E   W          +H.  Q
|-----------------|-----------------|-0--------|-(0)-------|
|-----------------|-----------------|-5--------|-(5)-------|
|---------0-------|---------0-------|-5--------|-(5)-------|
|-----7-----7-----|-----9-----9-----|-0--------|-(0)-------|
|---3---3-----3---|---5---5-----5---|-5--------|-(5)-------|
|-3-------------3-|-5-------------5-|----------|-----------|



Bridge:
  Gtr II
  E E E E E E E E   E E E E E E E E   E E E E E E E E   E E E E E E E E
|-----------------|-----------------|-----------------|-----------------|
|-----------------|-----------------|-----------------|-----------------|
|-----------------|-----------------|-----------------|-----------------|
|-7-7-7-7-7-7-7-7-|-8-8-8-8-8-8-8-8-|-3-3-3-3-3-3-3-3-|-5-5-5-5-5-5-5-5-|
|-7-7-7-7-7-7-7-7-|-8-8-8-8-8-8-8-8-|-3-3-3-3-3-3-3-3-|-5-5-5-5-5-5-5-5-|
|-7-7-7-7-7-7-7-7-|-8-8-8-8-8-8-8-8-|-3-3-3-3-3-3-3-3-|-5-5-5-5-5-5-5-5-|


  E E E E E E E E   E E E E E E E E   Q  E Q  Q  E    +E  Q  +E  E E E E
|-----------------|-----------------|---------------|---------------------|
|-----------------|-----------------|-6--6-6--6--5--|-(5)-5--(5)----------|
|-----------------|-----------------|-0--0-0--0--0--|-(0)-0--(0)----------|
|-7-7-7-7-7-7-7-7-|-8-8-8-8-8-8-8-8-|-7--7-7--7--5--|-(5)-5--(5)-2-2-2-2--|
|-7-7-7-7-7-7-7-7-|-8-8-8-8-8-8-8-8-|-5--5-5--5--3--|-(3)-3--(3)-2-2-2-2--|
|-7-7-7-7-7-7-7-7-|-8-8-8-8-8-8-8-8-|---------------|------------2-2-2-2--|


  E E E E E E E E   E E E E E E E E   E E E E E E E E   E E E E E E E E
|-----------------|-----------------|-----------------|-----------------|
|-----------------|-----------------|-----------------|-----------------|
|-----------------|-----------------|-----------------|-----------------|
|-7-7-7-7-7-7-7-7-|-8-8-8-8-8-8-8-8-|-3-3-3-3-3-3-3-3-|-5-5-5-5-5-5-5-5-|
|-7-7-7-7-7-7-7-7-|-8-8-8-8-8-8-8-8-|-3-3-3-3-3-3-3-3-|-5-5-5-5-5-5-5-5-|
|-7-7-7-7-7-7-7-7-|-8-8-8-8-8-8-8-8-|-3-3-3-3-3-3-3-3-|-5-5-5-5-5-5-5-5-|


  E E E E E E E E   E E E E E E E E   Q  E Q  Q  E   +E  Q  +E  H
|-----------------|-----------------|--------------|-----------------|
|-----------------|-----------------|-6--6-6--6--5-|-(5)-5--(5)------|
|-----------------|-----------------|-0--0-0--0--0-|-(0)-0--(0)------|
|-7-7-7-7-7-7-7-7-|-8-8-8-8-8-8-8-8-|-7--7-7--7--5-|-(5)-5--(5)-2----|
|-7-7-7-7-7-7-7-7-|-8-8-8-8-8-8-8-8-|-5--5-5--5--3-|-(3)-3--(3)-2----|
|-7-7-7-7-7-7-7-7-|-8-8-8-8-8-8-8-8-|--------------|------------2----|


  Q  E Q  Q  E   +E  Q  +E  H      Q  E Q  Q  +E    H    H
|--------------|-----------------|----------------|-----------|
|-6--6-6--6--5-|-(5)-5--(5)------|-6--6-6--6--(6)-|-5----3----|
|-0--0-0--0--0-|-(0)-0--(0)------|-0--0-0--0--(0)-|-0----0----|
|-7--7-7--7--5-|-(5)-5--(5)-2----|-7--7-7--7--(7)-|-5----0----|
|-5--5-5--5--3-|-(3)-3--(3)-2----|-5--5-5--5--(5)-|-3----2----|
|--------------|------------2----|----------------|-----------|



Pre-chorus:

    Gtr I
    E E E E E E E E   E E E E E E E E
||------------------|-----------------|
||o-----------------|-----------------|
||----------0-------|---------0-------|
||------7-----7-----|-----9-----9-----|
||o---3---3-----3---|---5---5-----5---|
||--3-------------3-|-5-------------5-|


  E E  E E E E  E E   E E E E E E E  E  8x
|-------------------|-----------0----0--||-|
|----------0--------|---------5--------o||-|
|------------0------|-----2-------2-----||-|
|-----10-------10---|-------4-----------||-|
|---7----7--------0-|---0--------------o||-|
|-7-----------------|-0-----------------||-|



Final Chorus/Outro:

  E E E E E E E E   E E E E E E E E   E E E E E E E E   E E E E E E E E
|-----------------|-----------------|-----7-----7-----|-----8-----8-----|
|-----------------|-----------------|-----------------|-----------------|
|---------0-------|---------0-------|---5-----5---5---|---0-----0-----0-|
|-----7-----7-----|-----9-----9-----|-7-----7-------7-|-5-----5-----5---|
|---3---3-----3---|---5---5-----5---|-----------------|-----------------|
|-3-------------3-|-5-------------5-|-----------------|-----------------|


   E  E  E  E  E  E  E  E    E E  E  E E E E E    W          +W
|-------12-------12-------|------10------------|-!7--------|-(7)----|
|-------------------------|----------------9---|-----------|--------|
|----10-------10----10----|----9---------7---7-|-!5--------|-(5)----|
|-12-------12----------12-|-10------10-9-------|-!7--------|-(7)----|
|-------------------------|--------------------|-----------|--------|
|-------------------------|--------------------|-----------|--------|


  +W           +W           +W           +W
|-(7)--------|-(7)--------|-(7)--------|-(7)----|
|------------|------------|------------|--------|
|-(5)--------|-(5)--------|-(5)--------|-(5)----|
|-(7)--------|-(7)--------|-(7)--------|-(7)----|
|------------|------------|------------|--------|
|------------|------------|------------|--------|


  +W           +W           +W           +W
|-(7)--------|-(7)--------|-(7)--------|-(7)----|
|------------|------------|------------|--------|
|-(5)--------|-(5)--------|-(5)--------|-(5)----|
|-(7)--------|-(7)--------|-(7)--------|-(7)----|
|------------|------------|------------|--------|
|------------|------------|------------|--------|




----------------------------------------------------------------------------


Duration Legend
---------------
W - whole; H - half; Q - quarter; E - 8th; S - 16th; T - 32nd; X - 64th; a - acciaccatura
+ - note tied to previous; . - note dotted; .. - note double dotted
Uncapitalized letters represent notes that are staccato (1/2 duration)
Irregular groupings are notated above the duration line
Duration letters will always appear directly above the note/fret number it represents the
duration for.  Duration letters with no fret number below them represent rests.  Multi-
bar rests are notated in the form Wxn, where n is the number of bars to rest for.  Low
melody durations appear below the staff

Tablature Legend
----------------
 h   - hammer-on
 p   - pull-off
 b   - bend
 pb  - pre-bend
 r   - bend release (if no number after the r, then release immediately)
 /\  - slide into or out of (from/to "nowhere")
 s   - legato slide
 S   - shift slide
 - natural harmonic
[n]  - artificial harmonic
n(n) - tapped harmonic
 ~   - vibrato
 tr  - trill
 T   - tap
 TP  - trem. picking
 PM  - palm muting
\n/  - tremolo bar dip; n = amount to dip
 \n  - tremolo bar down
 n/  - tremolo bar up
/n\  - tremolo bar inverted dip
 =   - hold bend; also acts as connecting device for hammers/pulls
 <> - volume swell (louder/softer)
 x   - on rhythm slash represents muted slash
 o   - on rhythm slash represents single note slash

Misc Legend
-----------
 |  - bar
||  - double bar
||o - repeat start
o|| - repeat end
*|  - double bar (ending)
 :  - bar (freetime)
 $  - Segno
 &  - Coda
Tempo markers -  = BPM(8/16=s8/s16), where s8 = swing 8ths, s16 = swing 16ths

            
            
Suggest correction
Creating personal tab
Creating personal tab
You can edit any tab online and save it as your Personal.

You can edit, replace or remove any tab part or add personal notes – all changes will be seen only by you.

Personal tabs can be accessed anytime from any device, even offline.
Learn more »
comments
print report bad tab
5 comments total. Showing first comments.
0 reply
The_Grace 74 Jun 14, 2007 08:09 PM

best surrender tab right here...great job!

0 reply
floydzeppelin 20 Aug 15, 2007 01:19 PM

this is a horrible tab. there deffinitly isnt 2 guitars.

0 reply
floydzeppelin 20 Aug 15, 2007 01:20 PM

1 star

guest
You may want to rate the tab now too:
select rating
Wanna post a correction for this tab? Suggest correction