Oops, an error
Loading. Please wait.

Surrender Bass Tab

version 5
5,894 views 1 this week
2 commentsread comments
1 2 3 4 5
1 last vote to show rating
add to favorites
launch autoscroll
font size
0
reset
guitar tuner
Autoscroll
slow
fast
+/-
esc
set tempo
stop
Help us to improve Ultimate-Guitar.com Take our survey!
×
Difficulty
Tuning
novice
D A D G B E
Intro:1x
G|---------------------------------------------------------------------|
D|-----------------------------------12--12--151412--------------------|
A|-1212121212121212-1010101010101010---12--12------14-15151515---------|
D|------------------------------------------------------------14141414-|

Verse Pt1: 2x                                 
G|---------------------------------------|
D|---------------------------------------|
A|-0-(ring)-------5(ring)-3(ring)--------|
D|---------5(ring)---------------2(ring)-|

Verse Pt2: 2x
G|-------------------------------------|
D|-----------------0-0-320-------------|
A|-00000000---------0-0---23333--------|
D|---------55555555------------2222----|

Chorus x2 
G|-----------------------------------------------|--------------------|
D|-----------------------------------------------|--------------------|
A|------------------00000000(55555555)-----------|------------5(ring)-|
D|--3333333355555555---------00000000------------|-3333355555---------|

Post Chorus: Play Intro x1
Verse Pt2:2x
Chorus:2x
Bridge Pt1:2x
G|-------------------------------------------------------------|
D|-------------------------------------------------------------|
A|-0000000111111111----------------0000000111111111-5-555-33---|
D|-----------------333333335555555---------------------------2-|

Bridge Pt2:1x
G|------------------------------------------------------|
D|------------------------------------------------------|
A|-5-555-33---5-555-33---5-555-3-2----------------------|
D|----------2----------2-----------3(ring)--------------|

Post Bridge:3x
G|---------------------------------------|
D|---------------------------------------|
A|------------------0(ring)--------------|
D|--3(ring)-5(ring)--------0(ring)-------|
Chorus x7 
Outro:1x
G|---------------------------------------|
D|---------------------------------------|
A|----5(ring)-3(ring)-2(ring)-0(ring)----|
D|---------------------------------------|
Suggest correction
Give kudos to tab author, rate the tab!
1 2 3 4 5
comments
print report bad tab
2 comments total.
+1 reply
SpoonBassist 94 Jun 11, 2008 12:30 PM

You kinda made the intro part more complicated...It's right though..You could just do it on the D and G string..Be a bit easier to read and maybe play

0 reply
thunderhawk 535 Feb 17, 2009 09:34 PM

your like an octiv too high

guest
You may want to rate the tab now too:
select rating
Wanna post a correction for this tab? Suggest correction