Oops, an error
Loading. Please wait.

Surrender Bass Tab

version 6
22,619 views 129 this week
3 commentsread comments
1 2 3 4 5
x 18
add to favorites
launch autoscroll
font size
0
reset
guitar tuner
×
Best way to learn
"Surrender"
Autoscroll
slow
fast
+/-
esc
set tempo
stop
Song: Surrender
Artist: Billy Talent
Album: Billy Talent II

Super easy song to play. In the intro when you see 1’s and 0’s squished together that’s 
Sorry about that. Notes are arranged according to the timing of the song. If you want to 
this tab use size 9 with Courier New, and each line of tab will be on only one page. Enjoy!

[INTRO]   ( :  )
G|----------------|----------------|7---7---109-7---|----------------|
D|7-7-7-7-7-7-7-7-|----------------|--7---7-------9-|10101010--------|
A|----------------|1010101010101010|----------------|--------7-7-7-7-|
D|----------------|----------------|----------------|----------------|

[VERSE 1]   ( :  )
G|----------------|----------------|----------------|----------------|
D|----------------|----------------|----------------|----------------|
A|----------------|----------------|----------------|3---------------|
D|7---------------|5---------------|0---------------|--------2-------|  x2

G|----------------|----------------|----------------|----------------|
D|----------------|----------------|--------3-2-----|----------------|
A|----------------|----------------|5-0-5-0-----5-2-|3-3-3-3---------|
D|7-7-7-7-7-7-7-7-|5-5-5-5-5-5-5-5-|----------------|--------2-2-2-2-|

G|----------------|----------------|----------------|----------------|
D|----------------|----------------|--------3-2-----|----------------|
A|----------------|----------------|5-0-5-0-----5-2-|3-3-3-3---------|
D|7-7-7-7-7-7-7-7-|5-5-5-5-5-5-5-5-|----------------|--------2-------|

[CHORUS 1]   ( :  )
G|----------------|----------------|----------------|----------------|
D|----------------|----------------|----------------|----------------|
A|----------------|----------------|----------------|----------------|
D|3-3-3-3-3-3-3-3-|5-5-5-5-5-5-5-5-|7-7-7-7-7-7-7-7-|0-0-0-0-0-0-0-2-|  x2

G|----------------|----------------|----------------|----------------|
D|----------------|----------------|----------------|----------------|
A|----------------|----------------|----------------|----------------|
D|3-3-3-3-3-3-3-3-|5-5-5-5-5-5-5-5-|0~~~~~~~~~~~~~~~|(0)-------------|

[PRE-VERSE 2]   ( :  )  -> Play intro
G|----------------|----------------|7---7---109-7---|----------------|
D|7-7-7-7-7-7-7-7-|----------------|--7---7-------9-|10101010--------|
A|----------------|1010101010101010|----------------|--------7-7-7-7-|
D|----------------|----------------|----------------|----------------|

[VERSE 2]   ( :  )  -> Play second half of verse 1, but replace last bar with:
G|----------------|
D|----------------|
A|3-3-3-3---------|
D|--------2-2-2---|

[CHORUS 2]   ( :  )  -> Play chorus 1 but replace last two bars with:
G|----------------|----------------|
D|----------------|----------------|
A|------------5---|----------------|
D|0---0-0-0-0---0-|0-0-0-0-0-------|

[INTERLUDE]   ( :  )
G|----------------|----------------|----------------|----------------|
D|7-7-7-7-7-7-7-8-|8-8-8-8-8-8-8---|--------------5-|5-5-5-5-5-5-5-7-|
A|----------------|--------------8-|8-8-8-8-8-8-8---|----------------|
D|----------------|----------------|----------------|----------------|

G|----------------|----------------|----------------|----------------|
D|7-7-7-7-7-7-7-8-|8-8-8-8-8-8-8-8-|----------------|----------------|
A|----------------|----------------|5---5-5---5---3-|--3-------------|
D|----------------|----------------|----------------|--------2-2-2-2-|

G|----------------|----------------|----------------|----------------|
D|7-7-7-7-7-7-7-8-|8-8-8-8-8-8-8---|--------------5-|5-5-5-5-5-5-5-7-|
A|----------------|--------------8-|8-8-8-8-8-8-8---|----------------|
D|----------------|----------------|----------------|----------------|

G|----------------|----------------|----------------|----------------|
D|7-7-7-7-7-7-7-8-|8-8-8-8-8-8-8-8-|----------------|----------------|
A|----------------|----------------|5---5-5---5---3-|--3-------------|
D|----------------|----------------|----------------|--------2---2---|

G|----------------|----------------|----------------|----------------|
D|----------------|----------------|----------------|----------------|
A|5---5-5---5---3-|--3-------------|5---5-5---5-----|3---------------|
D|----------------|--------2---2---|----------------|--------5-------|

G|----------------|----------------|----------------|----------------|
D|----------------|----------------|----------------|----------------|
A|----------------|----------------|----------------|----------------|
D|3---------------|5---------------|7---------------|0---------------|  x2

G|----------------|----------------|----------------|----------------|
D|----------------|----------------|----------------|----------------|
A|----------------|----------------|----------------|5---5---5---5---|
D|3---------------|5---------------|7---------------|--0---0---0-----|

[CHORUS 3]   ( :  )
G|----------------|----------------|----------------|----------------|
D|----------------|----------------|----------------|----------------|
A|----------------|----------------|----------------|5-5-5-5-5-5-5-5-|
D|3-3-3-3-3-3-3-3-|5-5-5-5-5-5-5-5-|7-7-7-7-7-7-7-7-|----------------|

G|----------------|----------------|----------------|----------------|
D|----------------|----------------|----------------|----------------|
A|----------------|----------------|----------------|5-5-5-5-3-2-0---|
D|3-3-3-3-3-3-3-3-|5-5-5-5-5-5-5-5-|7-7-7-7-7-7-7-7-|--------------5-|

G|----------------|----------------|----------------|----------------|
D|----------------|----------------|----------------|----------------|
A|----------------|----------------|----------------|5-5-5-5-5-5-5-5-|
D|3-3-3-3-3-3-3-3-|5-5-5-5-5-5-5-5-|7-7-7-7-7-7-7-7-|----------------|  x3

G|----------------|----------------|----------------|----------------|
D|3-3-3-3-3-3-3-3-|5-5-5-5-5-5-5-5-|----------------|----------------|
A|----------------|----------------|----------------|----------------|
D|----------------|----------------|7---------------|5---------------|

G|----------------|----------------|----------------|
D|----------------|----------------|----------------|
A|----------------|3-------2-------|0---------------|
D|0---------------|----------------|----------------|    - :

Symbol Legend:

x2   = Play this section twice
~    = Let note ring
(0)  = Let note ring into next bar

That’s it. Any questions, comments, suggestions or corrections would be appreciated.
Suggest correction
comments
print report bad tab
3 comments total.
0 reply
Andrax20 160 Dec 13, 2009 12:07 PM

Perfection. Finally, an accurate 'Surrender' bass tab.

0 reply
Matyas.Jouza 10 Sep 27, 2013 08:40 AM

bridge is too low :D but its a good tab

0 reply
shredderbert 33 Jul 26, 2016 11:06 AM

Only one word: perfect!

guest
You may want to rate the tab now too:
select rating
Wanna post a correction for this tab? Suggest correction