Oops, an error
Loading. Please wait.

Surrender Bass Tab

version 7
890 views 1 this week
no commentswrite comment
1 2 3 4 5
please rate
add to favorites
launch autoscroll
font size
0
reset
guitar tuner
Tab Pro tools
  • play this tab
  • loop segment
  • change instrument
  • show fretboard
  • metronome
×
Best way to learn
"Surrender"
Autoscroll
slow
fast
+/-
esc
set tempo
stop
Tabbed by MasterX99

This is my first Tab ever so please show mercy =)
First i practiced this song with a other Tab from this site, but i thought it had some 
i corrected it and here it is. Have Fun playing this song ^^

greeting MasterX99

Intro:1x
G|-----------------------0-5-6-5------------------|
D|55555555--------0-5-0-5-------5555--------------|
A|--------77777777------------------5555----------|
D|------------------------------------------------|

Verse part 1:2x
G|----------------------------------------|
D|----------------------------------------|
A|----------------5(ring)-3(ring)---------|
D|-3(ring)-5(ring)---------------2(ring)--|

Verse part 2:2x
G|---------------------------------------------|
D|-------------------------0-5-6-5-------------|
A|------------------0-5-0-5-------5555-3333----|
D|-33333333-55555555---------------------------|

Chorus part 1:2x
G|----------------------------------------|
D|----------------------------------------|
A|------------------0000000-55555555------|
D|--3333333-5555555-----------------------|

Chorus part 2:1x
G|---------------------------|
D|---------------------------|
A|-------------------5(ring)-|
D|-33333333-55555555---------|

Post Chorus:1x
G|-----------------------0-5-6-5------------------|
D|55555555--------0-5-0-5-------5555--------------|
A|--------77777777------------------5555----------|
D|------------------------------------------------|


Verse part 1:2x
G|---------------------------------------------|
D|-------------------------0-5-6-5-------------|
A|------------------0-5-0-5-------5555-3333----|
D|-33333333-55555555---------------------------|


Chorus part 1:2x
G|----------------------------------------|
D|----------------------------------------|
A|------------------0000000-55555555------|
D|--3333333-5555555-----------------------|

Chorus part 2:1x
G|---------------------------|
D|---------------------------|
A|-------------------5(ring)-|
D|-33333333-55555555---------|

Bridge part 1:1x
G|------------------------------------------------------|
D|------------------------------------------------------|
A|00000000-11111111-33333333-55555555-00000000-11111111-|
D|------------------------------------------------------|

Bridge part 2:1x
G|--------------|
D|--------------|
A|--5-555-33-2--|
D|--------------|

Bridge part 1:1x
G|------------------------------------------------------|
D|------------------------------------------------------|
A|00000000-11111111-33333333-55555555-00000000-11111111-|
D|------------------------------------------------------|

Bridge part 3:1x
G|----------------------------------------------------------|
D|----------------------------------------------------------|
A|-5-555-33-2--5-555-33-2--5-555-3-2------------------------|
D|-----------------------------------3-(ring)---------------|

Post Bridge:3x
G|---------------------------------------|
D|---------------------------------------|
A|------------------5(ring)-0(ring)------|
D|--3(ring)-5(ring)----------------------|

Chorus part 1:6x
G|----------------------------------------|
D|----------------------------------------|
A|------------------0000000-55555555------|
D|--3333333-5555555-----------------------|

Chorus part 2:1x
G|---------------------------|
D|---------------------------|
A|-------------------5(ring)-|
D|-33333333-55555555---------|

Outro:1x
G|-----------------------------------------------------|
D|-----------------------------------------------------|
A|----3(ring)-2(ring)----------------------------------|
D|--------------------5(ring)-3(ring)-2(ring)-0(ring)--|
comments
We did not receive enough feedback on this tab! Please rate:
print report bad tab
1 2 3 4 5
I want to post or [tab]
guest
You may want to rate the tab now too:
select rating
Please do not post tabs as comments. Select "correction" instead!