Oops, an error
Loading. Please wait.

Surrender Bass Tab

version 8
version 8

Interactive

1,880 views 1 this week
no commentswrite comment
1 2 3 4 5
please rate
add to favorites
launch autoscroll
font size
0
reset
guitar tuner
Autoscroll
slow
fast
+/-
esc
set tempo
stop
Help us to improve Ultimate-Guitar.com Take our survey!
×
Author
Difficulty
Tuning
intermediate
D A D G B E
I am 100% sure of these tabs. Please commment and rate.

Verse 1
G|-------------------------------------------------|
D|-------------------------------------------------|
A|-12-12-12-12-12-12-12-12-10-10-10-10-10-10-10-10-|
D|-------------------------------------------------|

G|-------------10-9--------------------------|
D|-12----12---------12-9-10-10-10-10---------|
A|----12----12-----------------------7-7-7-7-|
D|-------------------------------------------|

Verse 2
G|------------------|
D|------------------|
A|-0-----------3----|
D|-----5---0------2-| X2

Verse 3
G|---------------------------------|
D|---------------------------------|
A|-0-0-0-0-0-0-0-0-----------------|
D|-----------------5-5-5-5-5-5-5-5-|

G|-------------------------------------------------|
D|-0---0---3-2-0-----------------------------------|
A|---0---0-------2-3-3-3-3-3-3-3-3-----------------|
D|---------------------------------2-2-2-2-2-2-2-2-| X2

Chorus
G|-----------------------------------------------------------------|
D|-----------------------------------------------------------------|
A|-----------------------------------------------------------------|
D|-3-3-3-3-3-3-3-3-5-5-5-5-5-5-5-5-7-7-7-7-7-7-7-7-0-0-0-0-0-0-0-2-| X2

G|--------------------------------------|
D|--------------------------------------|
A|--------------------------------------|
D|-3-3-3-3-3-3-3-3-5-5-5-5-5-5-5-5-0----|

Verse 1
G|-------------------------------------------------|
D|-------------------------------------------------|
A|-12-12-12-12-12-12-12-12-10-10-10-10-10-10-10-10-|
D|-------------------------------------------------|

G|-------------10-9--------------------------|
D|-12----12---------12-9-10-10-10-10---------|
A|----12----12-----------------------7-7-7-7-|
D|-------------------------------------------|

Verse 3
G|---------------------------------|
D|---------------------------------|
A|-0-0-0-0-0-0-0-0-----------------|
D|-----------------5-5-5-5-5-5-5-5-|

G|-------------------------------------------------|
D|-0---0---3-2-0-----------------------------------|
A|---0---0-------2-3-3-3-3-3-3-3-3-----------------|
D|---------------------------------2-2-2-2-2-2-2-2-| X2

Chorus
G|-----------------------------------------------------------------|
D|-----------------------------------------------------------------|
A|-----------------------------------------------------------------|
D|-3-3-3-3-3-3-3-3-5-5-5-5-5-5-5-5-7-7-7-7-7-7-7-7-0-0-0-0-0-0-0-2-| X2

G|-------------------------------------------------------------|
D|-------------------------------------------------------------|
A|-------------------------------------------------------------|
D|-3-3-3-3-3-3-3-3-5-5-5-5-5-5-5-5-0-0-0-0-0-0-0-0-0-0-0-0-0---|

Bridge
G|-----------------------------------------------------------|
D|-----------------------------3-3-3-3-3-3-3-5-5-5-5-5-5-5---|
A|-0-0-0-0-0-0-0-1-1-1-1-1-1-1-------------------------------|
D|-----------------------------------------------------------|

G|---------------------------------------------------|
D|-7-7-7-7-7-7-7-8-8-8-8-8-8-8-8-8-------------------|
A|---------------------------------5--5-5--5-3-3-----|
D|------------------------------------------------2--|

G|-----------------------------------------------------------|
D|-----------------------------3-3-3-3-3-3-3-5-5-5-5-5-5-5---|
A|-0-0-0-0-0-0-0-1-1-1-1-1-1-1-------------------------------|
D|-----------------------------------------------------------|

G|---------------------------------|
D|-7-7-7-7-7-7-7-8-8-8-8-8-8-8-8-8-|
A|---------------------------------|
D|---------------------------------|

G|---------------------------------------------------------|
D|---------------------------------------------------------|
A|-5--5-5--5-3-3-----5--5-5--5-3-3-----5--5-5--5-3---------|
D|----------------2-----------------2----------------2-2---|

Chorus
G|-----------------------------------------------------------------|
D|-----------------------------------------------------------------|
A|-----------------------------------------------------------------|
D|-3-3-3-3-3-3-3-3-5-5-5-5-5-5-5-5-7-7-7-7-7-7-7-7-0-0-0-0-0-0-0-2-| X5

G|---------------------------------------------------------|
D|---------------------------------------------------------|
A|---------------------------------0-----------3-----------|
D|-3-3-3-3-3-3-3-3-5-5-5-5-5-5-5-5-----5---0------2---2----|

Enjoy!
Suggest correction
Give kudos to tab author, rate the tab!
1 2 3 4 5
comments
print report bad tab
guest
You may want to rate the tab now too:
select rating
Wanna post a correction for this tab? Suggest correction