Oops, an error
Loading. Please wait.

Swallowed Up By The Ocean bass

version 1
version 1

Whole song

Interactive

298 views 1 this week
no commentswrite comment
1 2 3 4 5
2 more votes to show rating
add to favorites
×
Save as Personal and add changes to this tab that will be seen only by you. Learn more ›
×
You can save this tab as Personal to edit and correct it or add notes. All changes will be seen only by you. Learn more »
launch autoscroll
font size
0
reset
guitar tuner
edit
Autoscroll
slow
fast
+/-
esc
set tempo
stop
-------------------------------------------------------------------------------
                             Swallowed Up By The Ocean - Billy Talent
-------------------------------------------------------------------------------
Tabbed by: markushein03 
E-mail: markus.hein03@gmail.com

Tuning: Drop D
  
  Part 1
G|-------------------------------------|
D|-------------------------------------|                
A|5---------------------1--------------|    3x
D|----5----8----3---2-------0---0------|

  Part 2
G|-------------------------------------------------------------------|
D|-------------------------------------------------------------------|
A|-------------------------------------------------------------------|    2x
D|8-8-8-8-8-8-8-8-8-8-8-8-8-8-8-8-5-5-5-5-5-5-5-5-5-5-5-5-5-5-5-5----|
  
  Part 3                     
G|------------------------------------------------------------------------------------------------|
D|------------------------------------------------------------------------------------------------|
A|5-5-5-5-5-5-5-5-----------------------------------------------------------------1-1-1-1-1-1-1-1-|       
D|----------------5-5-5-5-5-5-5-5-8-8-8-8-8-8-8-8-3-3-3-3-3-3-3-3-2-2-2-2-2-2-2-2-----------------|

G|-------------------------------------|
D|-------------------------------------|
A|-------------------------------------|    3x
D|0-0-0-0-0-0-0-0-0-0-0-0-0-0-0-0------|

  Part 4  It's like the part 2, but there's a different ending. ;)
G|---------------------------------------------------------------------------|
D|---------------------------------------------------------------------------|
A|---------------------------------------------------------------------------|
D|8-8-8-8-8-8-8-8-8-8-8-8-8-8-8-8-5-5-5-5-5-5-5-5-5-5-5-5-5-5-5-5------------|

G|---------------------------------------------------------------------------|
D|---------------------------------------------------------------------------|
A|--------------------------------------------------------5------------------|
D|8-8-8-8-8-8-8-8-8-8-8-8-8-8-8-8-5-5-5-5-5-5-5-5-5-5-5-5---3-2-0------------|
   
   Part 5 - The guitar solo.  It's like the part 3, but there's a different ending too. ;)
G|------------------------------------------------------------------------------------------------|
D|------------------------------------------------------------------------------------------------|
A|5-5-5-5-5-5-5-5-------------------------------------------------3-3-3-3-3-3-3-3-1-1-1-1-1-1-1-1-|
D|----------------5-5-5-5-5-5-5-5-8-8-8-8-8-8-8-8-3-3-3-3-3-3-3-0---------------------------------|

G|------------------------------------|
D|------------------------------------|
A|----------------------------5-------|
D|0-0-0-0-0-0-0-0-0-0-0-0-5-0---0-----|

   Part 6  It's like the part 3, but it's a little bit different. ;)
G|------------------------------------------------------------------------------------------------|
D|------------------------------------------------------------------------------------------------|
A|5-5-5-5-5-5-5-5-----------------------------------------------------------------1-1-1-1-1-1-1-1-|
D|----------------5-5-5-5-5-5-5-5-8-8-8-8-8-8-8-8-3-3-3-3-3-3-3-0-2-2-2-2-2-2-2-2-----------------|

G|------------------------------------------------------------------------------------------------|
D|------------------------------------------------------------------------------------------------|
A|----------------------------5---5-5-5-5-5-5-5-5-------------------------------------------------|
D|0-0-0-0-0-0-0-0-0-0-0-0-5-0---0-----------------5-5-5-5-5-5-5-5-8-8-8-8-8-8-8-8-3-3-3-3-3-3-3-0-|

G|--------------------------------------------------------|
D|--------------------------------------------------------|
A|----------------1-1-1-1-1-1-1-1-------------3-3-3-------|
D|2-2-2-2-2-2-2-2-----------------0---2---3---------0-----|

   Part 7 
G|---------------------------------------------------------------------------------------------------------|
D|---------------------------------------------------------------------------------------------------------|
A|1-1-1-1-1-1-1-1-1-1-1-1-3-3-3-3-5-5-5-5-5-5-5-5-5-5-5-5-8-8-8---3-3-3-3-3-3-3-3-1-1-1-1-1----------------|
D|--------------------------------------------------------------0---------------------------0-3-2-0-0-0-0--|

G|------------------------------------------------------------------------------------------|
D|------------------------------------------------------------------------------------------|
A|----------------3-3-3---1-1-1-1-1-1-1-1-1-1-1-1-3-3-3-3-------------------------8-8-8-----|
D|2-2-2-2-3-3-3-3-------0---------------------------------0-0-0-0-0-0-0-0-0-0-0-0-------0---|

   Part 8 - The end.
G|--------------------------------------------------------------------|
D|--------------------------------------------------------------------|
A|3-3-3-3-3-3-3-3-1-1-1-1-1-------------------------------------------|    2x  
D|--------------------------0-3-2-0-0-0-0-2-2-2-2-3-3-3-3-0-0-0-0-----|

G|----------------|
D|----------------|
A|3---1-----------|
D|--------0-------|  

I hope it's helpful for You, because I work really hard to make this bass tab. 


Suggest correction
Creating personal tab
Creating personal tab
You can edit any tab online and save it as your Personal.

You can edit, replace or remove any tab part or add personal notes – all changes will be seen only by you.

Personal tabs can be accessed anytime from any device, even offline.
Learn more »
Give kudos to tab author, rate the tab!
1 2 3 4 5
comments
print report bad tab
guest
You may want to rate the tab now too:
select rating
Wanna post a correction for this tab? Suggest correction