Oops, an error
Loading. Please wait.

Sympathy Bass

version 1
version 1

Whole song

Interactive

4,296 views 1 this week
3 commentsread comments
1 2 3 4 5
x 7
add to favorites
launch autoscroll
font size
0
reset
guitar tuner
×
Best way to learn
"Sympathy"
Autoscroll
slow
fast
+/-
esc
set tempo
stop
Author
Difficulty
Tuning
  follow
novice
D A D G
Track 12 off "Billy Talent II".
Not one of my favorites, but it's still okay.
The bass is pretty easy, nothing to hard, so try it, comment and rate.
Viva La Taborama.

Intro:1x                                                                    
G|-----------------------------------------|
D|---------------------------------1-0-----|
A|-6666-3333-----666-33------11--------3-1-| 
D|----------5555-------55--3---0--1--------| 

Verse:2x                                                                    
G|--------------------------------------------------------| 
D|--------------------------------------------------------| 
A|-----------111111---------------3333333--6-------5------|
D|-555555--------------3333333---------------5-8-5--4-7-4-| 

Pre-Chorus:1                                                                
G|---------------------------------|                                      
D|-------------------------111111--|                                       
A|---------000000--111111----------|                                        
D|-555555--------------------------|

Chorus:1x Play 3x         |Play After 3x                                   
G|------------------------|-----------------|                              
D|------------------------|---------1-0-----|                             
A|-6666-3333-----666-33---|---11--------3-1-|                             
D|----------5555-------55-|-3----0-1--------|

Verse:2x
Pre-Chorus:1x
Chorus:2x

Bridge:2x
G|------------------------------------------------------------------|
D|------------------------------------------------------------------|
A|----------------------------0-1-2-3-33333333-5-66666666-55555555--|
D|-55555555-00000000-33333333---------------------------------------|

Cont.
Play After 1x | After 2x
G|------------|----------|
D|------------|----------|
A|------------|----------|
D|--33333333--|-55555555-|

Chorus:2x Play After 3x Thrice 

THAT'S ALL FOLKS!

Suggest correction
comments
print report bad tab
3 comments total.
0 reply
A_GOOD_TABBER 145 Jul 03, 2006 07:49 PM

By bridge do you mean that guitar solo? This tab is ok. good job.

0 reply
temp144 1,191 Jul 03, 2006 11:28 PM

Yep! That is what is playing underneath the solo.

0 reply
AnduNeedle 6,848 Sep 20, 2014 05:05 AM

I don't see why it has only 4 stars. It is perfect.

guest
You may want to rate the tab now too:
select rating
Wanna post a correction for this tab? Suggest correction