Oops, an error
Loading. Please wait.

Sympathy tab

version 1
version 1

Whole song

Interactive

9,648 views 6 this week
2 commentsread comments
1 2 3 4 5
x 6
add to favorites
×
Save as Personal and add changes to this tab that will be seen only by you. Learn more ›
×
You can save this tab as Personal to edit and correct it or add notes. All changes will be seen only by you. Learn more »
launch autoscroll
font size
0
reset
how to read this tab
guitar tuner
edit
Autoscroll
slow
fast
+/-
esc
set tempo
stop
Billy Talent - Sympathy
posted by E-S-L

~~~~~~~~~~~~~~~~~~~~~~~~

tuning: drop D

just so you know, I didn't come up with the tab all by myself, my guitar teacher helped 
figure it out. (I just fiddled with what he thought it was to make it sound better to 
 XP

INTRO
e|---------------------|-----------------|-------------|
B|---------------------|-----------------|-------------|
G|---------------------|-----------------|-------------|
D|-888--101010--121212-|-888-101010-1212-|----33-------|
A|-666--8-8-8---101010-|-666-8-8-8--1010-|-3--11-0-1---|
D|---------------------|-----------------|-3-----0-1---|

CHORUS
rift 1C
e|---------------------------|
B|---------------------------|
G|---------------------------|
D|-888--555-------888-555----|
A|-666--333--555--666-333-55-|
D|-----------555----------55-|   PLAY 3 TIMES

rift 2C
e|-------------|
B|-------------|
G|-------------|
D|----33-------|
A|-3--11-0-1---|
D|-3-----0-1---|


VERSE
e|---------------------------------------------------|
B|---------------------------------------------------|
G|---------------------------------------------------|
D|---------------------------------1-------0---------|
A|---------111111----------333333----3-------3--1--0-|
D|-555555----------333333--------------4-1-----------|
   ......  ......  ......  ......

e|---------------------------------------------------|
B|---------------------------------------------------|
G|---------------------------------------------------|
D|---------333333----------555555--1-------0---------|
A|-555555--111111--333333--333333----3-------3--1--0-|
D|-555555----------333333--------------4-1-----------|
   ......  ......  ......  ......

e|-------------------------------------|
B|-------------------------------------|
G|-------------------------------------|
D|-33333333-55555555-77777777-99999999-|
A|-11111111-33333333-55555555-77777777-|
D|-------------------------------------| (I bet I got this line wrong  XP)


SOLO (kinda "borrowed" it from hakudoushi's version. hope he doesn't mind XP)
e|-----------------------------------------------------------------------|
B|-----------------------------------------------------------------------|
G|-----------------------------------------------------------------------|
D|------5--------5--7--8--------8--7-5-7--------7--8--10-----------------|
A|--/5--------5--------5-----5---------3-----3-----5--6------------------|
D|-----------------------------------------------------------------------|

e|------------------------------------------------------------10---------|
B|-------8--------8--11--10-----7---8--10--11--------11--10-8-10---------|
G|---0---8-----8---------7------7---7--7---7------7-----------7----------|
D|--/10------------------------------------------------------------------|
A|-----------------------------------------------------------------------|
D|-----------------------------------------------------------------------|

e|-----------------------6----------------------------------------------------------------------|
B|------8-------------8-----6-------------6--8--10----------------10--11--13----------------13\-|
G|--/7------7------7------------7------7-------------10-------10---------------12-------12------|
D|-------------8-------------------8---------------------10------------------------13-----------|
A|----------------------------------------------------------------------------------------------|
D|----------------------------------------------------------------------------------------------|

e|-----------------------------------------------------------------------|
B|--8------8------8--11--10------10------8--10--11--11--11--11--11--11---|
G|--8---8------8---------7----7-------7--7--7---7---7---7---7---7---7----|
D|-----------------------------------------------------------------------|
A|-----------------------------------------------------------------------|
D|-----------------------------------------------------------------------|

e|--8--8--10--10--10--10--10--10-----------------------------------------|
B|--8--8--8---8---8---8---7---7------------------------------------------|
G|--7--7--7---7---7---7---7---7------------------------------------------|
D|--------------------------------10\------------------------------------|
A|--------------------------------10\------------------------------------|
D|--------------------------------10\------------------------------------|


ORDER:
INTRO
VERSE
1C
2C
VERSE
1C
2C
1C
2C X2
SOLO
1C
2C
1C
2C X3

please, make comments. tell me how I did on my first tab   =3

            
            
Suggest correction
Creating personal tab
Creating personal tab
You can edit any tab online and save it as your Personal.

You can edit, replace or remove any tab part or add personal notes – all changes will be seen only by you.

Personal tabs can be accessed anytime from any device, even offline.
Learn more »
comments
print report bad tab
2 comments total.
0 reply
Zuka 403 Oct 09, 2006 11:41 AM

Well, it isn't right... But it isnt wrong either. Y'know Ian does play the full chords, not just power chords... I guess you did alright... 4 stars...

0 reply
monachima505 187 Oct 09, 2006 02:12 PM

Zuka pretty much got it right...there are some parts that aren't right, but a lot of them are good... By the way, its my solo, not hakudoushi's.....o well it doesn't really matter

guest
You may want to rate the tab now too:
select rating
Wanna post a correction for this tab? Suggest correction