Oops, an error
Loading. Please wait.

Sympathy Bass Tab

version 2
version 2

Whole song

Interactive

2,703 views 3 this week
no commentswrite comment
1 2 3 4 5
1 last vote to show rating
add to favorites
launch autoscroll
font size
0
reset
guitar tuner
Autoscroll
slow
fast
+/-
esc
set tempo
stop
Help us to improve Ultimate-Guitar.com Take our survey!
×
Author
Song: Sympathy
Artist: Billy Talent
Album: Billy Talent II

This song is not particularly difficult to play, though it is harder than a lot of Billy
other songs. At the end of the verse riff there are descending arpeggios that require
quick jumps up and down the fretboard. Also, in order to avoid notes that are squashed
I have made the bars shorter, though this means more bars and a longer tab. Also
of this, the interlude is quite long and could be confusing; just remember that the
is the same throughout. I have arranged the notes according to the timing of the song, but
the timing is a bit strange, it would be easier to simply get the rhythm by ear. Also, 
print this tab, use the font Courier New, size 9, and each line of tab will be on
single page. Enjoy!


INTRO   ( :  )

G|--------|----------------|----------------|----------------|----------------|
D|--------|----------------|----------------|----------------|----------------|
A|--------|6-6-6-6-----3-3-|3-3-------------|----6-6-6---3-3-|3---------------|
D|12\-----|----------------|--------5-5-5-5-|----------------|----5---5-------|

G|----------------|----------------|----------------|----------------|
D|----------------|----------------|----------------|1---0-----------|
A|------------1---|1---------------|----------------|--------3---1---|
D|3---------------|--------0-------|1-------1-------|----------------|

VERSE 1   ( :  )

G|----------------|----------------|----------------|----------------|
D|----------------|----------------|----------------|----------------|
A|----------------|----------------|1-1-1-1-1-1-----|----------------|
D|5-5-5-5-5-5-----|----------------|----------------|----------------|  \
                                                                        |
G|----------------|----------------|----------------|----------------|  |
D|----------------|----------------|----------------|----------------|  |
A|----------------|----------------|3-3-3-3-3-3-----|----------------|  |  x2
D|3-3-3-3-3-3-----|----------------|----------------|----------------|  |
                                                                        |
G|----------------|----------------|                                    /
D|1---------------|----------------|
A|----1-----------|5---0-----------|
D|--------5---1---|--------4---0---|

PRE-CHORUS 1   ( :  )

G|----------------|----------------|----------------|----------------|
D|----------------|----------------|----------------|----------------|
A|----------------|----------------|0---0---0---0---|0---0---0---0---|
D|5---5---5---5---|5---5---5---5---|----------------|----------------|

G|----------------|----------------|----------------|----------------|
D|----------------|----------------|----------------|----------------|
A|1---1---1---1---|3---3---5---5---|----------------|----------------|
D|----------------|----------------|0---0---0---0---|0---0---12\-----|


CHORUS 1   ( :  )

G|----------------|----------------|----------------|----------------|
D|----------------|----------------|----------------|----------------|
A|6-6-6-6-----3-3-|3-3-------------|----6-6-6---3-3-|3---------------|
D|----------------|--------5-5-5-5-|----------------|----5---5-------|

G|----------------|----------------|----------------|----------------|
D|----------------|----------------|----------------|----------------|
A|6-6-6-6-----3-3-|3-3-------------|----6-6-6---3-3-|3---------------|
D|----------------|--------5-5-5-5-|----------------|----5-----5-5-5-|

G|----------------|----------------|----------------|----------------|
D|----------------|----------------|----------------|----------------|
A|6-6-6-6-----3-3-|3-3-------------|----6-6-6---3-3-|3---------------|
D|----------------|--------5-5-5-5-|----------------|----5---5-------|

G|----------------|----------------|----------------|----------------|
D|----------------|----------------|----------------|1---0-----------|
A|------------1---|1---------------|----------------|--------3---1---|
D|3---------------|--------0-------|1-------1-------|----------------|


VERSE 2   ( :  )  -> Play verse 1

PRE-CHORUS 2   ( :  )  -> Play pre-chorus 1

CHORUS 2   ( :  )  -> Play chorus 1 twice, then play this:

G|----------------|----------------|----------------|----------------|
D|----------------|----------------|----------------|1---0-----------|
A|------------1---|1---------------|----------------|--------3---1---|
D|3---------------|--------0-------|1-------1-------|----------------|


GUITAR SOLO   ( :  )

G|----------------|----------------|----------------|----------------|
D|----------------|----------------|----------------|----------------|
A|----------------|----------------|1---1---1---1---|1---1---1---1---|
D|5---5---5---5---|5---5---5---5---|----------------|----------------|

G|----------------|----------------|----------------|----------------|
D|----------------|----------------|----------------|----------------|
A|----------------|----------------|----------------|----------------|
D|3---3---3---3---|3---3---3---3---|6---6---6---6---|6---6---6---6---|

G|----------------|----------------|----------------|----------------|
D|----------------|----------------|----------------|----------------|
A|----------------|----------------|----------------|----------------|
D|1---1---1---1---|1---1---1---1---|4---4---4---4---|4---4---4---4---|

G|----------------|----------------|----------------|----------------|
D|----------------|----------------|----------------|----------------|
A|----------------|----------------|----------------|----------------|
D|5---5---5---5---|5---5---5---5---|0---0---0---0---|0---0---0---0---|


G|----------------|----------------|----------------|----------------|
D|----------------|----------------|----------------|----------------|
A|----------------|----------------|1---1---1---1---|1---1---1---1---|
D|5---5---5---5---|5---5---5---5---|----------------|----------------|

G|----------------|----------------|----------------|----------------|
D|----------------|----------------|----------------|----------------|
A|----------------|----------------|3---3---3---3---|3---3---3---3---|
D|3---3---3---3---|3---3---3---3---|----------------|----------------|

G|----------------|----------------|----------------|----------------|
D|----------------|----------------|----------------|----------------|
A|----------------|----------------|----------------|----------------|
D|1---1---1---1---|1---1---1---1---|4---4---4---4---|4---4---4---4---|

G|----------------|----------------|----------------|----------------|
D|----------------|----------------|----------------|----------------|
A|----------------|----------------|----------------|----------------|
D|5---5---5---5---|5---5---5---5---|0---0---0---0---|0---0---12\-----|


CHORUS 3   ( :  )  -> Play chorus 2 completely, then play this:

G|----------------|----------------|----------------|
D|----------------|----------------|----------------|
A|------------1---|1---------------|----------------|
D|3---------------|--------0-------|1---------------|    - :


Symbol Legend:

x2  = Play this section twice

That’s it. Any questions, comments, suggestions or corrections would be appreciated.
Suggest correction
Give kudos to tab author, rate the tab!
1 2 3 4 5
comments
print report bad tab
guest
You may want to rate the tab now too:
select rating
Wanna post a correction for this tab? Suggest correction