Oops, an error
Loading. Please wait.

Tears Into Wine Bass Tab

version 1
version 1

Whole song

Interactive

8,893 views 12 this week
3 commentsread comments
1 2 3 4 5
accurate
x 9
add to favorites
launch autoscroll
font size
0
reset
guitar tuner
Autoscroll
slow
fast
+/-
esc
set tempo
stop
Help us to improve Ultimate-Guitar.com Take our survey!
×
Contributor
temp144 1,110
tabbed by tony.d

its a lil rough some parts but ill fix it later   

Intro:1x
G-------------------------------------------------------------------------|
D-------------------------------------------------------------------------|
A-11111111-44444444----------44444444-66666666-44444444-33333333----------|
D-------------------44444444-------------------------------------33333333-|

Verse:2x                                                After 1st x
G-------------------------------------------------------|------------------------------|
D----------------------------------------------88888888-|------------------------7-7-7-|
A-11111111-44444444----------44444444-66666666----------|-8-8-8-8-8-8-8-8--9-9-9-------|
D-------------------44444444----------------------------|------------------------------|

After 2nd x
G-----------------------------------------|
D-10-10-10-10-10-10-10-10-----------------|
A-------------------------8-8-8-8-8-8-8-8-|
D-----------------------------------------|

Pre-Chorus:1x
G-----------------------------------------------|
D-----------------------------------------------|
A---------1(ring)---------1(ring)-----4-6(ring)-|
D-4(ring)---------4(ring)---------4-6-----------|

Chorus:1x
G---------------------------------------------------------------------------------|
D---------------------------------------------------------------------------------|
A-4-4-8-8----------44444444--------44444444-66666-8-6--------8-88888888-9999-6666-|
D---------88888888---------44444444-------------------8-10-11---------------------|

Post-Chorus:Play Intro:1x
Verse:2x
Pre-Chorus:1x
Chorus:4x 

Bridge:1x
G----------------------------|
D----------------------------| Play 4x
A----------------1---1-1-3-4-|
D-4-4-4-4(ring)----3---------|

G-----------------------------------------------------------|
D-----------------------------------------------------------|
A---------1-1-1-1-----------1-1-1-1-----------4-4-4-6(ring)-|
D-4-4-4-4---------3-4-4-4-4---------3-4-4-4-6---------------|

Chorus:2x
Outro:1x
G-------------------------------------|
D-------------------------------------|
A-11111111-44444444----------44444444-|
D-------------------44444444----------|

G------------------------------------------------|
D------------------------------------------------|
A-66666666-44444444-88888888--9-9-9--6-6---------|
D----------------------------------------8(ring)-|
comments
print report bad tab
3 comments total.
-2 reply
BTrz 248 wrote on August 20 2009, 09:39 am

DROP C#!!!!

-2 reply
Skerlnik 193 wrote on February 12 2012, 05:04 am

This song is in drop C# like the previous comment said.

0 reply
AnduNeedle 6,417 wrote on May 22 2015, 09:40 am

Thought it is in drop C#, the song is made for drop D genius. 5 stars man!

I want to post or [tab]
guest
You may want to rate the tab now too:
select rating
Please do not post tabs as comments. Select "correction" instead!