Oops, an error
Loading. Please wait.

Tears Into Wine Bass Tab

version 2
version 2

Whole song

Interactive

2,943 views 3 this week
4 commentsread comments
1 2 3 4 5
please rate
add to favorites
launch autoscroll
font size
0
reset
guitar tuner
Autoscroll
slow
fast
+/-
esc
set tempo
stop
Help us to improve Ultimate-Guitar.com Take our survey!
×
Author
Difficulty
Tuning
intermediate
C# G# C# F# A# D#
Tabbed by Skerlnik.

Tears Into Wine [Billy Talent]
Drop C#

Intro:1x
F#-------------------------------------------------------|
C#-------------------------------------------------------|
G#-2(8x)------------------------------------4(8x)--------|
C#-------0(8x)--5(8x)--0(8x)--2(8x)--0(8x)---------4(8x)-|

Verse:2x                                       After 1st x
F#-------------------------------------------|----------------|
C#-------------------------------------------|----------------|
G#-2(8x)------------------------------2(8x)--|----------------|
C#--------0(8x)--5(8x)--0(8x)--2(8x)---------|-4(8x)--5-5-7-8-|

After 2nd x
F#--------------|
C#--------------|
G#-4(8x)--------|
C#--------4(8x)-|

Pre-Chorus
F#------------------------------------------|
C#------------------------------------------|
G#-------------------------5-7~-------------|
C#-5~--9~----5~--9~----5-7--------0000-4444-|

Chorus #1
F#------------------------------------------------------------|
C#------------------------------------------------------------|
G#-2(8x)------------------------------2-4-5-2-----------------|
C#--------0(8x)--5(8x)--0(8x)--2(8x)----------4(8x)-5-5-4-2---|

(1:12) Play Intro: 1x

(2:37) Chorus #2 (during guitar solo):1x
F#---------------------------------------------------------|
C#---------------------------------------------------------|
G#-2(8x)--5(8x)--10(8x)--9(8x)--7(8x)--5(8x)--4(8x)--------|
C#--------------------------------------------------4(8x)--|

(2:50) Bridge:4x
F#---------------------------|
C#---------------------------|
G#-------------2~----2-2-4-5-|
C#-5-5-5-5~--------4---------|

(3:14) Bridge cont.:1x
F#---------------------------------------------------------------------|
C#---------------------------------------------------------------------|
G#---------5-2-2-2-2-----------5-2-2-2-2-----------5-5-5-7~------------|
C#-5-5-5-5-----------4-5-5-5-5-----------4-5-5-5-7-----------0000-4444-|

(3:52) Outro:1x
F#--------------------------------------------------------------|
C#--------------------------------------------------------------|
G#-2(8x)-----------------------------------------------------2~-|
C#-------0(8x)--5(8x)--0(8x)--2(8x)--0(8x)--4(8x)--5-5-4-2-2----|

Play order:

Intro: 1x
Verse: 2x
Pre-Chorus: 1x
Chorus #1: 1x
Intro: 1x

Verse: 2x
Pre-Chorus: 1x
Chorus #1: 3x
Chorus #2: 1x

Bridge: 4x
Bridge cont.: 1x
Chorus #1: 2x
Outro: 1x
Suggest correction
What's this?
You can suggest a correction to this tab. Community and Mods will review your correction and vote to approve or reject it.
comments
We did not receive enough feedback on this tab! Please rate:
print report bad tab
1 2 3 4 5
4 comments total. Showing first comments.
-2 reply
Xo Synyster oX 26 wrote on October 12 2009, 12:20 pm

Wrong Tuning... BT always use Drop D...

0 reply
Skerlnik 193 wrote on October 14 2009, 10:51 pm

Xo Synyster oX: Sorry, but this song is clearly in drop C#. BT obviously doesn't "always" play in drop D.

+1 reply
Andrax20 274 wrote on January 3 2010, 01:13 am

Beofre Billy Talent III, this would have been true, but on 'White Sparrows', and Tears into Wine' for sure, Jon branches out a little and uses drop C#

guest
You may want to rate the tab now too:
select rating
Please do not post tabs as comments. Select "correction" instead!