Oops, an error
Loading. Please wait.

The Crutch tab

version 1
version 1

Whole song

Interactive

4,849 views 42 this week
4 commentsread comments
1 2 3 4 5
x 5
add to favorites
×
Save as Personal and add changes to this tab that will be seen only by you. Learn more ›
×
You can save this tab as Personal to edit and correct it or add notes. All changes will be seen only by you. Learn more »
launch autoscroll
font size
0
reset
how to read this tab
guitar tuner
edit
Autoscroll
slow
fast
+/-
esc
set tempo
stop
Billy Talent - The Crutch


Guitar-Cover: https://www.youtube.com/watch?v=vyXIqXDL82o&feature=youtu.be


[Intro]
                      (4x)
e|---------------------------|-------------------|
B|---------------------------|-------------------|
G|---------------------------|-3---5-6-----------|
D|-------5--------------5----|-3---5-6--6--------|
A|---------------------------|-1---3-4--6--------|
D|-3-4-5---5-3--0-3-4-5------|----------6--------|




[Verse]
                                                          
e|--------------------------------------------------------------------------------------|
B|--------------------------------------------------------------------------------------|
G|-------------------------------------------------3---5-6------------------------------|
D|-------5--------------5--------5--------------5--3---5-6--6--------5--------------5---|
A|-------------------------------------------------1---3-4--6---------------------------|
D|-3-4-5---5-3--0-3-4-5----3-4-5---5-3--0-3-4-5-------------6--3-4-5---5-3--0-3-4-5-----|

e|----------------------------------------------------------------|
B|----------------------------------------------------------------|
G|-------------------------------------------------3---5-6--------|
D|-------5--------------5--------5--------------5--3---5-6--6-----|
A|-------------------------------------------------1---3-4--6-----|
D|-3-4-5---5-3--0-3-4-5----3-4-5---5-3--0-3-4-5-------------6-----|

e|---------------------------------------------------------------------------------|
B|------------------------------8------------8-----------3-----------4-------------|
G|------------------------------5------------x-----------x-----------x-------------|
D|-------5----------------------5------------8-----------3-----------5-------------|
A|------------------------------6------------5-----------1-----------3-------------|
D|-3-4-5---5-3--0-3-4-5--5-5--5----5--5-5--5---5--5-5--5---5--5-5--5---5--5-5--5---|


e|---------------------------------------------|
B|-8--------8--------3--------6-------4--------|
G|-5--------x-(16x)--x--------x-------x--------|
D|-5-(16x)--8--------3-(12x)--7-(4x)--5-(9x)---|
A|-6--------5--------1--------5-------3--------|
D|---------------------------------------------|




[Chorus]
                                      
e|--------------------------------------------------------------------------------------------------|
B|--------------------------------------------------------------------------------------------------|
G|--------------3--5-6------------------------------------------3--5-6------------------------------|
D|-5----8--6----3--5-6--6--5----5--5--5-5-5--8--6--6--6-6-6--1--3--5-6--6--5--5--3---3--------------|
A|-5----8--6----1--3-4--6--5----5--5--5-5-5--8--6--6--6-6-6--1--1--3-4--6--5-------5---5-4-3-1------|
D|-5----8--6------------6--5----5--5--5-5-5--8--6--6--6-6-6--1----------6--5------------------------|



[Post-Chorus]
                       (3x)
e|---------------------------|-------------------|
B|---------------------------|-------------------|
G|---------------------------|-3---5-6-----------|
D|-------5--------------5----|-3---5-6--6--------|
A|---------------------------|-1---3-4--6--------|
D|-3-4-5---5-3--0-3-4-5------|----------6--------|



[Verse]
                                                          
e|--------------------------------------------------------------------------------------|
B|--------------------------------------------------------------------------------------|
G|-------------------------------------------------3---5-6------------------------------|
D|-------5--------------5--------5--------------5--3---5-6--6--------5--------------5---|
A|-------------------------------------------------1---3-4--6---------------------------|
D|-3-4-5---5-3--0-3-4-5----3-4-5---5-3--0-3-4-5-------------6--3-4-5---5-3--0-3-4-5-----|

e|----------------------------------------------------------------|
B|----------------------------------------------------------------|
G|-------------------------------------------------3---5-6--------|
D|-------5--------------5--------5--------------5--3---5-6--6-----|
A|-------------------------------------------------1---3-4--6-----|
D|-3-4-5---5-3--0-3-4-5----3-4-5---5-3--0-3-4-5-------------6-----|

e|---------------------------------------------------------------------------------|
B|------------------------------8------------8-----------3-----------4-------------|
G|------------------------------5------------x-----------x-----------x-------------|
D|-------5----------------------5------------8-----------3-----------5-------------|
A|------------------------------6------------5-----------1-----------3-------------|
D|-3-4-5---5-3--0-3-4-5--5-5--5----5--5-5--5---5--5-5--5---5--5-5--5---5--5-5--5---|


e|---------------------------------------------|
B|-8--------8--------3--------6-------4--------|
G|-5--------x-(16x)--x--------x-------x--------|
D|-5-(16x)--8--------3-(12x)--7-(4x)--5-(9x)---|
A|-6--------5--------1--------5-------3--------|
D|---------------------------------------------|



[Chorus]
                                      
e|--------------------------------------------------------------------------------------------------|
B|--------------------------------------------------------------------------------------------------|
G|--------------3--5-6------------------------------------------3--5-6------------------------------|
D|-5----8--6----3--5-6--6--5----5--5--5-5-5--8--6--6--6-6-6--1--3--5-6--6--5--5--3---3--------------|
A|-5----8--6----1--3-4--6--5----5--5--5-5-5--8--6--6--6-6-6--1--1--3-4--6--5-------5---5-4-3-1------|
D|-5----8--6------------6--5----5--5--5-5-5--8--6--6--6-6-6--1----------6--5-------------------5----|



[Bridge]

e|--------------------------------------------------------------------------------------------...|
B|-6--6-6-6--6-6--6-----8--8-8-8--8----------6--6-6-6--6-6--6-----8--8-8-8--------------------...|
G|-6--6-6-6--6-6--6-----7--7-7-7--7----------6--6-6-6--6-6--6-----7--7-7-7--------------------...|
D|-5--5-5-5--5-5--5--8--5--5-5-5--5----------5--5-5-5--5-5--5--8--5--5-5-5--5--3-5-3----------...|
A|-6--6-6-6--6-6--6--8--5--5-5-5--5----------6--6-6-6--6-6--6--8--5--5-5-5-----------5-4-3----...|
D|-------------------8--5--5-5-5--5-3--5--8--------------------8--5--5-5-5-----------------5--...|


e|...-------------------------------------------------------------------------------------|
B|...--6--6-6-6--6-6--6-----8--8-8-8--8----------6--6-6-6--6-6--6--6--6--4--4--4--4--4----|
G|...--6--6-6-6--6-6--6-----7--7-7-7--7----------7--7-7-7--7-7--7--7--7--x--x--x--x--x----|
D|...--5--5-5-5--5-5--5--8--5--5-5-5--5----------7--7-7-7--7-7--7--7--7--5--5--5--5--5----|
A|...--6--6-6-6--6-6--6--8--5--5-5-5--5----------5--5-5-5--5-5--5--5--5--3--3--3--3--3----|
D|...--------------------8--5--5-5-5--5-3--5--8-------------------------------------------|




[Solo]
                                  (warning: not 100% accurate)   
    
e|--------------3---3-3-----3-3-----3-3-----3-3-----3-3-----3-3---------------------------------...|
B|-----------3----3-6-3---3-6-3---3-6-3---3-6-3---3-6-3---3-6-3-6-5-----6-5---------------------...|
G|-5b-5-3----5b---------6-------6-------6-------6-------6-------6-5-----6-5---------------------...|
D|--------5---------------------------------------------------------3-5-----5-3---------5~------...|
A|------------------------------------------------------------------------------5-4-3-1---------...|
D|----------------------------------------------------------------------------------------------...|


e|...-------15-17-15--20--17----15--------13--13-15-13-----------------------------...|
B|...-17-20------------------17-----14-15--------------15-13----13-15-13-15~-------...|
G|...--------------------------------------------------------15----------15~-------...|
D|...------------------------------------------------------------------------------...|
A|...------------------------------------------------------------------------------...|
D|...------------------------------------------------------------------------------...|


e|...---------------------------------------------------------------------|
B|...-----------17-17b-17-15----17b-15-----------------15-15-15b\---------|
G|...--------15-17-17b-17-15----17b-15-----------------15-15-15b\---------|
D|...--15-17-----------------17--------17-15-17--15-17--------------------|
A|...---------------------------------------------------------------------|
D|...---------------------------------------------------------------------|




[After Solo]

e|--------------------------------------------------------------------------------------------...|
B|-6--6-6-6--6-6--6-----8--8-8-8--8----------6--6-6-6--6-6--6-----8--8-8-8--------------------...|
G|-6--6-6-6--6-6--6-----7--7-7-7--7----------6--6-6-6--6-6--6-----7--7-7-7--------------------...|
D|-5--5-5-5--5-5--5--8--5--5-5-5--5----------5--5-5-5--5-5--5--8--5--5-5-5--5--3-5-3----------...|
A|-6--6-6-6--6-6--6--8--5--5-5-5--5----------6--6-6-6--6-6--6--8--5--5-5-5-----------5-4-3----...|
D|-------------------8--5--5-5-5--5-3--5--8--------------------8--5--5-5-5-----------------5--...|


e|...-------------------------------------------------------------------------------------|
B|...--6--6-6-6--6-6--6-----8--8-8-8--8----------6--6-6-6--6-6--6--6--6--4--4--4--4--4----|
G|...--6--6-6-6--6-6--6-----7--7-7-7--7----------7--7-7-7--7-7--7--7--7--x--x--x--x--x----|
D|...--5--5-5-5--5-5--5--8--5--5-5-5--5----------7--7-7-7--7-7--7--7--7--5--5--5--5--5----|
A|...--6--6-6-6--6-6--6--8--5--5-5-5--5----------5--5-5-5--5-5--5--5--5--3--3--3--3--3----|
D|...--------------------8--5--5-5-5--5-3--5--8-------------------------------------------|





[Chorus]
                                      
e|----------------------------------------------------------------------|
B|----------------------------------------------------------------------|
G|----------------------------------3--5-6------------------------------|
D|--5--5--5-5-5--8--6--6--6-6-6--1--3--5-6--6--5--5--3---3--------------|
A|--5--5--5-5-5--8--6--6--6-6-6--1--1--3-4--6--5-------5---5-4-3--1-----|
D|--5--5--5-5-5--8--6--6--6-6-6--1----------6--5------------------------|


e|------------------------------------------------------------------|
B|------------------------------------------------------------------|
G|----------------------------------3--5-6--------------------------|
D|--5--5--5-5-5--8--6--6--6-6-6--1--3--5-6--6--5--5-5-5-------------|
A|--5--5--5-5-5--8--6--6--6-6-6--1--1--3-4--6--5--5-5-5-------------|
D|--5--5--5-5-5--8--6--6--6-6-6--1----------6--5--5-5-5-------------|

                                    
                                                            (2x)
e|----------------------------------------------------------------------|
B|--8--8--8-8-8--11-9--9--9-9-9-----------------------------------------|
G|--7--7--7-7-7--10-8--8--8-8-8--8--3--5-6------------------------------|
D|--5--5--5-5-5--8--6--6--6-6-6--8--3--5-6--6--5--5--3---3--------------|
A|--5--5--5-5-5--8--6--6--6-6-6--6--1--3-4--6--5-------5---5-4-3--1-----|
D|--5--5--5-5-5--8--6--6--6-6-6-------------6--5------------------------|




[Outro]

                      (6x)
e|---------------------------|
B|---------------------------|
G|---------------------------|
D|-------5--------------5----|
A|---------------------------|
D|-3-4-5---5-3--0-3-4-5------|


Have Fun ;)
made by BILLYacbTALENT (YouTube)


************************************

| x   Dead note
| g   Grace note
| (n) Ghost note
| h   Hammer-on
| p   Pull-off
| r   Release
| >   Accented note
| t   Tapping
| b   Bend
| br  Bend release
| pb  Pre-bend
| pbr Pre-bend release
| /   Slide up
| \   Slide down
| ~   Vibrato
| s   Slap
| P   Pop
| PM  Palm mute
| TR  Trill
| N   Tremolo

************************************

            
            
Suggest correction
Creating personal tab
Creating personal tab
You can edit any tab online and save it as your Personal.

You can edit, replace or remove any tab part or add personal notes – all changes will be seen only by you.

Personal tabs can be accessed anytime from any device, even offline.
Learn more »
comments
print report bad tab
4 comments total. Showing first comments.
0 reply
zzac1234 10 Jul 25, 2016 04:19 AM

knew i could count on you man!

0 reply
bugyvader 10 Sep 19, 2016 06:57 AM

its

e|---------------------------| ***
B|---------------------------|
G|---------------------------|
D|-------5--------------5----|
A|---------------------------|
D|-3-4-5---5-3--0-3-4-5------|

0 reply
bugyvader 10 Sep 19, 2016 06:59 AM

also the 2nd and 3rd chord in the pre-chorus is wrong. Not sure personally what it is.

guest
You may want to rate the tab now too:
select rating
Wanna post a correction for this tab? Suggest correction