Oops, an error
Loading. Please wait.

The Dead Cant Testify Bass Tab

version 1
version 1

Whole song

Interactive

13,811 views 18 this week
4 commentsread comments
1 2 3 4 5
excellent!
x 8
add to favorites
launch autoscroll
font size
0
reset
guitar tuner
Autoscroll
slow
fast
+/-
esc
set tempo
stop
Help us to improve Ultimate-Guitar.com Take our survey!
×
Author
The Dead Can't Testify
Album: Billy Talent III
Song by: Billy Talent
Tabbed by: Sam Hood
Tuning: Drop D (DADG)
Notes: A slightly long tab, tried to make it as readable as possible, 
welcome!


Intro (0:26)

G|----------------------------       |
D|----------------------------       |
A|----------------------------       |
D|-0-5-8--0-8-5--005-8--0-8-5-       |
                                     |
G|--------------------------------   |
D|--------------------------------   |
A|--------------------------------   |
D|-0-7-10--0-10-7--007-10--0-10-7-   |
                                     | x2
G|----------------------------       |
D|----------------------------       |
A|----------------------------       |
D|-0-4-7--0-7-4--004-7--0-7-4-       |
                                     |
G|----------------------------       |
D|----------------------------       |
A|----------------------------       |
D|-0-5-8--0-8-5--005-8--0-8-5-       |

Verse (0:49)

G|----------------------------       |
D|----------------------------       | x2
A|----------------------------       |
D|-0--0--0-0--0--0--0--0-0--0-       |

G|----------------------------|
D|----------------------------|
A|----------------------------|
D|-0-5-8--0-8-5--005-8--0-8-5-|

G|--------------------------------|
D|--------------------------------|
A|--------------------------------|
D|-0-7-10--0-10-7--007-10--0-10-7-|

G|----------------------------|
D|----------------------------|
A|----------------------------|
D|-0-4-7--0-7-4--004-7--0-7-4-|

G|----------------------------|
D|----------------------------|
A|----------------------------|
D|-0-5-8--0-8-5--005-8--0-8-5-|

Chorus Pt 1 (1:11)

G|---
D|---
A|---
D|-1- (let ring 4 beats)

G|----------------------------|
D|----------------------------|
A|----------------------------|
D|-0-5-8--0-8-5--005-8--0-8-5-|

G|---
D|---
A|---
D|-1- (let ring 4 beats)

G|----------------------------|
D|----------------------------|
A|----------------------------|
D|-0-5-8--0-8-5--005-8--0-8-5-|

G|---------------------|
D|---------------------|
A|---------------------|
D|-1---4---5--7--8--10-|

G|----------------------------|
D|----------------------------|
A|----------------------------|
D|-0-4-7--0-7-4--004-7--0-7-4-|

G|--------------------------------|
D|--------------------------------|
A|--------------------------------|
D|-0-7-10--0-10-7--007-10--0-10-7-|

Verse (1:34)

G|----------------------------       |
D|----------------------------       |
A|----------------------------       |
D|-0-5-8--0-8-5--005-8--0-8-5-       |
                                     |
G|--------------------------------   |
D|--------------------------------   |
A|--------------------------------   |
D|-0-7-10--0-10-7--007-10--0-10-7-   |
                                     | x2
G|----------------------------       |
D|----------------------------       |
A|----------------------------       |
D|-0-4-7--0-7-4--004-7--0-7-4-       |
                                     |
G|----------------------------       |
D|----------------------------       |
A|----------------------------       |
D|-0-5-8--0-8-5--005-8--0-8-5-       |

Chorus Pt 1 (1:57)

G|---
D|---
A|---
D|-1- (let ring 4 beats)

G|----------------------------|
D|----------------------------|
A|----------------------------|
D|-0-5-8--0-8-5--005-8--0-8-5-|

G|---
D|---
A|---
D|-1- (let ring 4 beats)

G|----------------------------|
D|----------------------------|
A|----------------------------|
D|-0-5-8--0-8-5--005-8--0-8-5-|

G|---------------------|
D|---------------------|
A|---------------------|
D|-1---4---5--7--8--10-|

G|----------------------------|
D|----------------------------|
A|----------------------------|
D|-0-4-7--0-7-4--004-7--0-7-4-|

G|--------------------------------|
D|--------------------------------|
A|--------------------------------|
D|-0-7-10--0-10-7--007-10--0-10-7-|

Chorus Pt 2 (2:19)

G|-----------------------------------|
D|-----------------------------------|
A|-------------------3-3-3-3---------|
D|-----8-8-013-3-3-3---------5-5-5-5-|

G|------------------------------------|
D|------------------------------------|
A|-------------------3-3-3-3----------|
D|-78-8-8-8-013-3-3-3---------5-5-5-5-|

G|-------------------------------------|
D|-------------------------------------|
A|-------------------------------------|
D|-78-8-8-8-013-3-3-3-1-1-1-1-5-5-5-5--|


G|----------------------------|
D|----------------------------|
A|----------------------------|
D|-0-4-7--0-7-4--004-7--0-7-4-|

G|--------------------------------|
D|--------------------------------|
A|--------------------------------|
D|-0-7-10--0-10-7--007-10--0-10-7-|

Verse (2:42)

G|----------------------------       |
D|----------------------------       |
A|----------------------------       |
D|-0-5-8--0-8-5--005-8--0-8-5-       |
                                     |
G|--------------------------------   |
D|--------------------------------   |
A|--------------------------------   |
D|-0-7-10--0-10-7--007-10--0-10-7-   |
                                     | x2
G|----------------------------       |
D|----------------------------       |
A|----------------------------       |
D|-0-4-7--0-7-4--004-7--0-7-4-       |
                                     |
G|----------------------------       |
D|----------------------------       |
A|----------------------------       |
D|-0-5-8--0-8-5--005-8--0-8-5-       |

Chorus Pt 1 (3:04)

G|---
D|---
A|---
D|-1- (let ring 4 beats)

G|----------------------------|
D|----------------------------|
A|----------------------------|
D|-0-5-8--0-8-5--005-8--0-8-5-|

G|---
D|---
A|---
D|-1- (let ring 4 beats)

G|----------------------------|
D|----------------------------|
A|----------------------------|
D|-0-5-8--0-8-5--005-8--0-8-5-|

G|---------------------|
D|---------------------|
A|---------------------|
D|-1---4---5--7--8--10-|

G|----------------------------|
D|----------------------------|
A|----------------------------|
D|-0-4-7--0-7-4--004-7--0-7-4-|

G|--------------------------------|
D|--------------------------------|
A|--------------------------------|
D|-0-7-10--0-10-7--007-10--0-10-7-|

Chorus Pt 2 (3:27)

G|-----------------------------------       |
D|-----------------------------------       |
A|-------------------3-3-3-3---------       |
D|-----8-8-013-3-3-3---------5-5-5-5-       |
                                            |
G|------------------------------------      |
D|------------------------------------      |
A|-------------------3-3-3-3----------      |
D|-78-8-8-8-013-3-3-3---------5-5-5-5-      |
                                            |
G|-------------------------------------     |
D|-------------------------------------     | x2
A|-------------------------------------     |
D|-78-8-8-8-013-3-3-3-1-1-1-1-5-5-5-5--     |
                                            |
                                            |
G|----------------------------              |
D|----------------------------              |
A|----------------------------              |
D|-0-4-7--0-7-4--004-7--0-7-4-              |
                                            |
G|--------------------------------          |
D|--------------------------------          |
A|--------------------------------          |
D|-0-7-10--0-10-7--007-10--0-10-7-          |

Outro (4:18)

G|----------------------------|
D|----------------------------|
A|----------------------------|
D|-0-5-8--0-8-5--005-8--0-8-5-|

G|----------------------------|
D|----------------------------|
A|----------------------------|
D|-0-5-8--0-8-5--005-8--0-8-5-|


Lyrics:

Let the rain fall down, let it fall to the ground,
Let the rain fall down to the ground.
And the birds don't sing, no they don't make a sound,
When you're six feet underground.

Well they cast me out when the word spread around
That I never sang in the church.
And it took one night for the town to decide
I'm afflicted by the curse.

And the rain falls down, let it fall to the ground.
And the birds don't sing, no they don't make a sound.
So I look to the sky, tell me why, tell me why,
Do they all get to live, and I have to die?

So they marched me down to the center of town,
With their pitchforks high in the air.
I was chained and bound with a blindfold around
So the judge wouldn't catch my stare.
And they hung my soul from the gallows pole
But the witch they never found.
So to those who don't fit society's mold,
Learn to swim or you will drown.

And the rain falls down, let it fall to the ground.
And the birds don't sing, no they don't make a sound.
So I look to the sky, tell me why, tell me why,
Do they all get to live, and I have to die?

And the angels sing: let it shine, let it shine,
Dry the teardrops from my eyes.
And the bells will ring when the blind lead the blind,
'Cause the dead can't testify.
And because I can't take an eye for an eye,
In the afterlife I'll haunt you 'till you die!

And the rain falls down, let it fall to the ground
(Let teardrops hit the ground!)
And the birds don't sing, no they don't make a sound
(When you're six feet underground!)
So I look to the sky, tell me why, tell me why,
Do they all get to live, and I have to die?

And the angels sing: let it shine, let it shine,
Dry the teardrops from my eyes.
And the bells will ring when the blind lead the blind,
'Cause the dead can't testify.
And because I can't take an eye for an eye,
In the afterlife I'll haunt you 'till you die!

And the angels sing: let it shine, let it shine,
Dry the teardrops from my eyes.
And the bells will ring when the blind lead the blind,
'Cause the dead can't testify.
And because I can't take an eye for an eye,
In the afterlife I'll haunt you 'till you die!
Suggest correction
What's this?
You can suggest a correction to this tab. Community and Mods will review your correction and vote to approve or reject it.
comments
print report bad tab
4 comments total. Showing first comments.
0 reply
studiothree 12 wrote on June 15 2009, 03:10 pm

ok i guess. hope no-one helped you with this. cause if they did then that would just suck y'know?

+1 reply
svenovich 25 wrote on August 1 2009, 02:46 pm

sounds very accurate, 100% I think at least 99, haha.

0 reply
vnwicked04 21 wrote on August 1 2011, 03:58 am

perfect tab but an open D string is played just before the outro :)

guest
You may want to rate the tab now too:
select rating
Please do not post tabs as comments. Select "correction" instead!