Oops, an error
Loading. Please wait.

The Dead Cant Testify Bass Tab

version 2
version 2

Whole song

Interactive

91 views 1 this week
no commentswrite comment
1 2 3 4 5
please rate
add to favorites
launch autoscroll
font size
0
reset
guitar tuner
Autoscroll
slow
fast
+/-
esc
set tempo
stop
Help us to improve Ultimate-Guitar.com Take our survey!
×
Author
Tuning
D A D G B E
Here is my tab of "The dead can't testify". I worked really hard but now I'm 100% sure that my tab is the right one. I took the tab which was already on 
ultimateguitar.com but it did'nt sound really good to me so I corrected it in my way. Jon Gallant's video of him playing it also helped me a lot (http://www.youtube.com/watch?
v=Tltti_O9oZ8), so now just enjoy it ! :)


Intro (0:26) 

G|----|                    
D|----|                    
A|----|                    
D|-0--|   

G|-----------------------|                    |
D|-----------------------|                    |
A|-----------------------|                    |
D|-5-8-0--8-8-5-0--5-8-0-|                    |
                                              |
G|-----------------------------------|        |
D|-----------------------------------|        |
A|-----------------------------------|        |
D|-7-10-0--10-7-0--10-10-7-0--7-10-0-|        |
                                              | 
G|------------------------------|             | X2
D|------------------------------|             |
A|------------------------------|             | 
D|-4-7-0--7-4-0--7-7-4-0--4-7-0-|             |
                                              | 
G|------------------------------|             | 
D|------------------------------|             | 
A|------------------------------|             | 
D|-5-8-0--8-5-0--8-8-5-0--5-8-0-|             |

Verse (0:49) 

G|----------------------------|
D|----------------------------|   X2
A|----------------------------|
D|-0--0--0-0--0--0--0--0-0--0-|

G|------------------------------|
D|------------------------------|  
A|------------------------------|
D|-5-8-0--8-5-0--8-8-5-0--5-8-0-|

G|-----------------------------------|
D|-----------------------------------| 
A|-----------------------------------|
D|-7-10-0--10-7-0--10-10-7-0--7-10-0-|

G|------------------------------|     
D|------------------------------|    
A|------------------------------| 
D|-4-7-0--7-4-0--7-7-4-0--4-7-0-|

G|------------------------------|
D|------------------------------| 
A|------------------------------|
D|-5-8-0--8-5-0--8-8-5-0--5-8-0-|

1st Chorus (1:11)

G|---|
D|---|
A|---|
D|-1-|(let ring 4 beats)

G|--------------------------|                    
D|--------------------------|                    
A|--------------------------|                    
D|-0--5-8-0--8-8-5-0--5-8-0-|  

G|---|
D|---|
A|---|
D|-1-|(let ring 4 beats)

G|--------------------------|                    
D|--------------------------|                    
A|--------------------------|                    
D|-0--5-8-0--8-8-5-0--5-8-0-|  

G|--------------------------|                    
D|--------------------------|                    
A|-------0--1--3------------|                    
D|-1--4---------------------|  

G|--------------------------|
D|--------------------------|  
A|--------------------------|
D|-0--5-8-0--8-8-5-0--5-8-0-|

G|-----------------------------------|
D|-----------------------------------| 
A|-----------------------------------|
D|-7-10-0--10-7-0--10-10-7-0--7-10-0-|

Verse (1:34) X2

G|-----------------------------|
D|-----------------------------|  
A|-----------------------------|
D|-5-8-0--8-5-0--8-8-5-0--5-8-0|

G|-----------------------------------|
D|-----------------------------------| 
A|-----------------------------------|
D|-7-10-0--10-7-0--10-10-7-0--7-10-0-|

G|------------------------------|     
D|------------------------------|    
A|------------------------------| 
D|-4-7-0--7-4-0--7-7-4-0--4-7-0-|

G|------------------------------|
D|------------------------------| 
A|------------------------------|
D|-5-8-0--8-5-0--8-8-5-0--5-8-0-|

2nd Chorus (1:57)

G|---|
D|---|
A|---|
D|-1-|(let ring 4 beats)

G|--------------------------|                    
D|--------------------------|                    
A|--------------------------|                    
D|-0--5-8-0--8-8-5-0--5-8-0-|  

G|---|
D|---|
A|---|
D|-1-|(let ring 4 beats)

G|--------------------------|                    
D|--------------------------|                    
A|--------------------------|                    
D|-0--5-8-0--8-8-5-0--5-8-0-|  

G|--------------------------|                    
D|--------------------------|                    
A|-------0--1--3------------|                    
D|-1--4---------------------|  

G|--------------------------|
D|--------------------------|  
A|--------------------------|
D|-0--5-8-0--8-8-5-0--5-8-0-|

G|---------------------------------------|
D|---------------------------------------| 
A|---------------------------------------|
D|-7-10-0--10-7-0--10-10-7-0--7-10-0--7-8|

3rd Chorus (2:19)

G|---------------------------------------|
D|---------------------------------------| 
A|------------3-3-3-3--------------------|
D|-013-3-3-3-----------5-5-5-5--78-8-8-8-|

G|---------------------------------------|
D|---------------------------------------| 
A|------------3-3-3-3--------------------|
D|-013-3-3-3-----------5-5-5-5--78-8-8-8-|

G|-----------------------------|
D|-----------------------------| 
A|-----------------------------|
D|-013-3-3-3--1-1-1-1--5-5-5-5-|

G|--------------------------|                    
D|--------------------------|                    
A|--------------------------|                    
D|-0--5-8-0--8-8-5-0--5-8-0-|                    

G|-----------------------------------|
D|-----------------------------------| 
A|-----------------------------------|
D|-7-10-0--10-7-0--10-10-7-0--7-10-0-|

Bridge (2:42) X2

G|------------------------------|
D|------------------------------|  
A|------------------------------|
D|-5-8-0--8-5-0--8-8-5-0--5-8-0-|

G|-----------------------------------|
D|-----------------------------------| 
A|-----------------------------------|
D|-7-10-0--10-7-0--10-10-7-0--7-10-0-|

G|------------------------------|     
D|------------------------------|    
A|------------------------------| 
D|-4-7-0--7-4-0--7-7-4-0--4-7-0-|

G|------------------------------|
D|------------------------------| 
A|------------------------------|
D|-5-8-0--8-5-0--8-8-5-0--5-8-0-|

4th Chorus (3:04)

G|---|
D|---|
A|---|
D|-1-|(let ring 4 beats)

G|--------------------------|                    
D|--------------------------|                    
A|--------------------------|                    
D|-0--5-8-0--8-8-5-0--5-8-0-|  

G|---|
D|---|
A|---|
D|-1-|(let ring 4 beats)

G|--------------------------|                    
D|--------------------------|                    
A|--------------------------|                    
D|-0--5-8-0--8-8-5-0--5-8-0-|  

G|--------------------------|                    
D|--------------------------|                    
A|-------0--1--3------------|                    
D|-1--4---------------------|  

G|--------------------------|
D|--------------------------|  
A|--------------------------|
D|-0--5-8-0--8-8-5-0--5-8-0-|

G|---------------------------------------|
D|---------------------------------------| 
A|---------------------------------------|
D|-7-10-0--10-7-0--10-10-7-0--7-10-0--7-8|

5th Chorus (3:27) X2

G|---------------------------------------|
D|---------------------------------------| 
A|------------3-3-3-3--------------------|
D|-013-3-3-3-----------5-5-5-5--78-8-8-8-|

G|---------------------------------------|
D|---------------------------------------| 
A|------------3-3-3-3--------------------|
D|-013-3-3-3-----------5-5-5-5--78-8-8-8-|

G|-----------------------------|
D|-----------------------------| 
A|-----------------------------|
D|-013-3-3-3--1-1-1-1--5-5-5-5-|

G|--------------------------|                    
D|--------------------------|                    
A|--------------------------|                    
D|-0--5-8-0--8-8-5-0--5-8-0-|                    
                                      
G|-----------------------------------|----|
D|-----------------------------------|----| Play this part just after the 
A|-----------------------------------|----| 1st time
D|-7-10-0--10-7-0--10-10-7-0--7-10-0-|-7-8|

Outro (4:18)

G|--------------------------|                    
D|--------------------------|                    
A|--------------------------|                    
D|-0--5-8-0--8-8-5-0--5-8-0-|  

G|----------------------------------|
D|----------------------------------|  
A|----------------------------------|
D|-5-8-0--8-5-0--8-8-5-0--5-8-0--8-5|
Suggest correction
What's this?
You can suggest a correction to this tab. Community and Mods will review your correction and vote to approve or reject it.
comments
We did not receive enough feedback on this tab! Please rate:
print report bad tab
1 2 3 4 5
guest
You may want to rate the tab now too:
select rating
Please do not post tabs as comments. Select "correction" instead!