Oops, an error
Loading. Please wait.

The Navy Song Bass Tab

2,138 views 1 this week
1 commentread comment
1 2 3 4 5
excellent!
x 4
add to favorites
launch autoscroll
font size
0
reset
guitar tuner
Autoscroll
slow
fast
+/-
esc
set tempo
stop
Help us to improve Ultimate-Guitar.com Take our survey!
×
Author
Song: The Navy Song
Artist: Billy Talent
Album: Billy Talent

This song is easy to play. The only thing somewhat unusual about this song is that the
thing is played in triplets. Because of this, I divided each bar into four sets of eighth
triplets. The notes are arranged according to the timing. Because of the unusual timing, 
are often squished together. It is very simple: the only notes higher than the
fret are on the twelfth fret, and they are always followed by a slide down symbol. This
chorus is very long but I wrote it out in full because I find it less confusing this
However, if you have any problems, feel free to post a comment and I’ll help you out. If 
want to print this tab, use Courier New, size 9 and each line of tab will be on
page only. Enjoy!


INTRO   ( :  )

G|------------|------------|------------|------------|
D|------------|------------|------------|------------|
A|3~~~~~~~~~~~|(3)---------|0~~~~~~~~~~~|(0)---000000|
D|------------|------------|------------|------------|


VERSE 1   ( :  )

G|------------|------------|------------|------------|
D|------------|------------|------------|------------|
A|------------|------------|------------|------------|
D|---5~~~~~~~~|(5)---------|---2~~~~~~~~|(2)---------|  x2

G|------------|------------|------------|------------|
D|------------|------------|------------|------------|
A|3-----3-----|3-----3/----|12\---0-----|12\---0-----|
D|------------|------------|------------|------------|


VERSE 2   ( :  )

G|------------|------------|------------|------------|
D|------------|------------|------------|------------|
A|------------|------------|------------|------------|
D|---5~~~~~~~~|(5)---------|---2~~~~~~~~|(2)---------|  x2

G|------------|------------|------------|------------|
D|------------|------------|------------|------------|
A|3~~~~~~~~~~~|(3)---------|0~~~~~~~~~~~|(0)---------|
D|------------|------------|------------|------------|

G|------------|------------|------------|------------|
D|------------|------------|------------|------------|
A|------------|------------|------------|------------|
D|5~~~~~~~~~~~|(5)---------|4-4-444-4-44|4-4-444-4-4-|


CHORUS 1   ( :  )

G|------------|------------|------------|------------|
D|------------|------------|------------|------------|
A|222222222222|444444555555|------------|------------|
D|------------|------------|5-5-555-5-55|5-5-555-5542|


G|------------|------------|------------|------------|
D|------------|------------|------------|------------|
A|------------|555555555555|------------|------------|
D|0-00-00-00-0|------------|4-4-444-4-44|4-4-44444444|

G|------------|------------|------------|------------|
D|------------|------------|------------|------------|
A|222222222222|444444555555|------------|------------|
D|------------|------------|5-5-555-5-55|5-5-555-5542|

G|------------|------------|------------|------------|
D|------------|------------|------------|---------444|
A|------------|555555555555|------------|------444---|
D|0-00-00-00-0|------------|4-4-444-4-44|4-4-44------|


G|------------|------------|------------|------------|
D|------------|------------|------------|------------|
A|3-----3-----|3-----3/----|12\---0-----|12\---0-----|
D|------------|------------|------------|------------|


VERSE 3   ( :  )  -> Play verse 2

CHORUS 2   ( :  )  -> Play chorus 1

INTERLUDE   ( :  )

G|------------|------------|------------|------------|
D|------------|------------|------------|------------|
A|3-----3-----|3-----3/----|12\---0-----|12\---3-----|
D|------------|------------|------------|------------|

G|------------|------------|------------|------------|
D|------------|------------|------------|------------|
A|------------|------------|------------|------------|
D|3-----3-----|3-----3/----|12\---0-----|12\---0-----|  x2


G|------------|------------|------------|------------|
D|------------|------------|------------|------------|
A|3~~~~~~~~~~~|(3)---------|0~~~~~~~~~~~|(0)---------|
D|------------|------------|------------|------------|

G|------------|------------|------------|------------|
D|------------|------------|------------|------------|
A|------------|------------|------------|------------|
D|5~~~~~~~~~~~|(5)---------|4-4-444-4-44|4-4-444-4-4-|

CHORUS 3   ( :  )

G|------------|------------|------------|------------|
D|------------|------------|------------|------------|
A|222222222222|444444555555|------------|------------|
D|------------|------------|5-5-555-5-55|5-5-555-5542|

G|------------|------------|------------|------------|
D|------------|------------|------------|------------|
A|------------|555555555555|------------|------------|
D|0-00-00-00-0|------------|4-4-444-4-44|4-4-44444444|

G|------------|------------|------------|------------|
D|------------|------------|------------|------------|
A|222222222222|444444555555|------------|------------|
D|------------|------------|5-5-555-5-55|5-5-555-5542|

G|------------|------------|------------|------------|
D|------------|------------|------------|---------444|
A|------------|555555555555|------------|------444---|
D|0-00-00-00-0|------------|4-4-444-4-44|4-4-44------|


G|------------|------------|------------|------------|
D|------------|------------|5-5-555-5-55|5-5-545-5542|
A|222222222222|444444555555|------------|------------|
D|------------|------------|------------|------------|

G|------------|------------|------------|------------|
D|------------|------------|4-4-444-4-44|4-4-44444444|
A|5-55-5555555|555555555555|------------|------------|
D|------------|------------|------------|------------|

G|------------|------------|------------|------------|
D|------------|------------|------------|------------|
A|222222222222|444444555555|------------|------------|
D|------------|------------|5-5-555-5-55|5-5-555-5542|

G|------------|------------|------------|------------|
D|------------|------------|------------|---------444|
A|------------|555555555555|------------|------444---|
D|0-00-00-00-0|------------|4-4-444-4-44|4-4-44------|

G|------------|------------|------------|------------|
D|------------|------------|------------|------------|
A|3-----3-----|3-----3/----|12\---0-----|12\---000000|
D|------------|------------|------------|------------|

G|------------|
D|------------|
A|------------|
D|---2--------|    - :


Symbol Legend:

~    = Let note ring
(3)  = Let note ring into next bar
x2   = Play this section twice
/    = Slide up
\    = Slide down

That’s it. Any questions, comments, suggestions or corrections would be appreciated.
Suggest correction
What's this?
You can suggest a correction to this tab. Community and Mods will review your correction and vote to approve or reject it.
comments
print report bad tab
1 comment total.
0 reply
B.C.RichRulz 648 wrote on April 23 2016, 02:31 pm

nicely done, 5 stars.

guest
You may want to rate the tab now too:
select rating
Please do not post tabs as comments. Select "correction" instead!