Oops, an error
Loading. Please wait.

This Is How It Goes Bass Tab

version 2
version 2

Whole song

2,746 views 3 this week
1 commentread comment
1 2 3 4 5
accurate
x 4
add to favorites
launch autoscroll
font size
0
reset
guitar tuner
Autoscroll
slow
fast
+/-
esc
set tempo
stop
Help us to improve Ultimate-Guitar.com Take our survey!
×
Author
Intro
G|---------------------------|
D|---------------------------|
A|-------------7-8---7-------|
D|0--0---7-8-------------0---|  x2

Chorus
G|------------------------------------|
D|------------------------------------|
A|------------------------------------|
D|00-00-00-88-88-88-33-33-33-77-77----|   x4

Verse
G|------------------------------|
D|0-0--5-7-8-2-2-3-3-3-2--------|
A|-----------------------1-0----|
D|------------------------------|   x6

Pre Chorus
G|--------------------------------------------------|
D|--------------------3-----------------------------|
A|--------0---1-1-1-1---1---------3-----------8-----|
D|0-0-0-0---0-------------3-3-3-3---3-8-8-8-8---8---|  x4

Chorus       x4
Verse        x6
Pre Chorus   x4
Chorus       x8

Bridge
G|-------------------------------------------------------------------------------------------------------------|
D|--------------------------------------------------------------------------------------33-33-33-3-------------|
A|------------55-55-55--55-55-55--------------------------55-3-11-11-11--1-11-11-11-3-4------------33-33-33-3--|
D|12~~---------------------------0-3-55-55-55--5-55-55-55------------------------------------------------------|  x3

G|---------------------------------------------------------------|
D|---------------------------------------------------------------|
A|55555555555-101010101010101010101010-777777777777-888888888888-|
E|---------------------------------------------------------------|
Chorus x4
End

D|-0-|
Suggest correction
What's this?
You can suggest a correction to this tab. Community and Mods will review your correction and vote to approve or reject it.
comments
print report bad tab
1 comment total.
0 reply
skate-fiend 105 wrote on February 22 2008, 12:26 pm

It's just simply wrong.

guest
You may want to rate the tab now too:
select rating
Please do not post tabs as comments. Select "correction" instead!