Oops, an error
Loading. Please wait.

This Is How It Goes Bass Tab

version 3
version 3

Whole song

5,780 views 1 this week
1 commentread comment
1 2 3 4 5
accurate
x 6
add to favorites
launch autoscroll
font size
0
reset
guitar tuner
Tab Pro tools
  • play this tab
  • loop segment
  • change instrument
  • show fretboard
  • metronome
×
Best way to learn
"This Is How It Goes"
Autoscroll
slow
fast
+/-
esc
set tempo
stop
Inro/Verse 2x:
D|--------------------------------|
G|--------------------------------|
A|55555555111111110000000044444444
D|--------------------------------

Chorus 4x:
D|------------3----------------------|
G|-----------------------------------|
A|55-5-95-11-1--1-----------00003333-|
D|----------------33-3-33-3----------|

Verse 4x

Chorus 4x

Verse 4x

Chorus 8x

Bridge 1 4x:
D|------------------------------------------------------------------|
G|------------------------------------------------------------------|
A|55555-55555555------------------------------88888-----------------|
D|---------------55555-55555555-88888-8888888-------10101010101010--| (They are tens)

Bridge 2 2x:
D|------------------------------|
G|------------------------------|
A|5(14x)-------------8(7x)------|
D|------5(14x)-8(14x)-----10----|(7x)

Chorus 4x

Ending 1x:
D|---
G|---
A|---
D|0-0
comments
print report bad tab
1 comment total.
0 reply
Andrax20 wrote on January 12 2010, 11:24 pm

The note progression in the intro is right, but your verse is way off. It's more or less following the guitar. Not getting lower and lower.

As well, keep an eye on the tempo of the notes. In the intro, the notes are only played in sets of 4's (not 8's) before changing.

Intro:
D|--------------------------------|
G|--------------------------------|
A|5-5-5-5-1-1-1-1-0-0-0-0-4-4-4-4-|
D|--------------------------------|

But your chorus and bridge are pretty spot on, good job.

I want to post or [tab]
guest
You may want to rate the tab now too:
select rating
Please do not post tabs as comments. Select "correction" instead!