Oops, an error
Loading. Please wait.

This Is How It Goes Tab

version 4
version 4
73,265 views 102 this week
28 commentsread comments
1 2 3 4 5
x 76
add to favorites
×
Save as Personal and add changes to this tab that will be seen only by you. Learn more ›
×
You can save this tab as Personal to edit and correct it or add notes. All changes will be seen only by you. Learn more »
save as personal
new!
launch autoscroll
font size
0
reset
how to read this tab
guitar tuner
Autoscroll
slow
fast
+/-
esc
set tempo
stop
Author
this is my second tab

dropped D
w/ distortion

[Intro]
e|------------------------------------------------------------------|  X3
B|------------------------------------------------------------------|
G|------------------------------------------------------------------|
D|------------------------------------------------------------------|
A|5-5-5-5-5-5-5-5-5-5-5-5-5-5-5-5-4-4-4-4-4-4-4-4-7-7-7-7-7-7-8-8---|
E|------------------------------------------------------------------|

e|----------------------------------------------------------------|
B|----------------------------------------------------------------|
G|----------------------------------------------------------------|
D|----------------------------------------------0-7-7---0-3-3---3-|
A|5-5-5-5-5-5-5-5-5-5-5-5-5-5-5-5-4-4-4-4-4-4-4-0-7-7---0-3-3---3-|
E|----------------------------------------------0-7-7---0-3-3---3-|

e|--------10------------10-------------5--------------------|
B|--------10------------10-------------5--------------------|
G|--------10------------10-------------5--------------------|
D|0-0---0----0--8-8---8----8--3-3---3----3------------------|
A|0-0---0----0--8-8---8----8--3-3---3----3------------3-----|
E|0-0---0----0--8-8---8----8--3-3---3----3--7-7-5-6-7---5-3-|

e|--------10------------10---|
B|--------10------------10---|
G|--------10------------10---|
D|0-0---0----0--8-8---8----8-|
A|0-0---0----0--8-8---8----8-|
E|0-0---0----0--8-8---8----8-|

e|--------5----------------------------10------------10---|
B|--------5----------------------------10------------10---|
G|--------5----------------------------10------------10---|
D|3-3---3---3--------------------0---0----0--8-8---8----8-|
A|3-3---3---3------------3-7-6-5-0---0----0--8-8---8----8-|
E|3-3---3---3--7-7-5-6-7---------0---0----0--8-8---8----8-|

e|--------5----------------------------10------------10---|
B|--------5----------------------------10------------10---|
G|--------5----------------------------10------------10---|
D|3-3---3---3------------------0-0---0----0--8-8---8----8-|
A|3-3---3---3------------3-----0-0---0----0--8-8---8----8-|
E|3-3---3---3--7-7-5-6-7---5-3-0-0---0----0--8-8---8----8-|

e|--------5--------------------|
B|--------5--------------------|
G|--------5--------------------|
D|3-3---3---3------------------|
A|3-3---3---3------------3-7-6-|
E|3-3---3---3--7-7-5-6-7-------|

[Verse]
e|------------------------------------------------------------------|  X3
B|------------------------------------------------------------------|
G|------------------------------------------------------------------|
D|------------------------------------------------------------------|
A|5-5-5-5-5-5-5-5-5-5-5-5-5-5-5-5-4-4-4-4-4-4-4-4-7-7-7-7-7-7-8-8---|
E|------------------------------------------------------------------|

e|----------------------------------------------------------------|
B|----------------------------------------------------------------|
G|----------------------------------------------------------------|
D|----------------------------------------------0-7-7---0-3-3---3-|
A|5-5-5-5-5-5-5-5-5-5-5-5-5-5-5-5-4-4-4-4-4-4-4-0-7-7---0-3-3---3-|
E|----------------------------------------------0-7-7---0-3-3---3-|

[Chorus]
e|--------10------------10-------------5--------------------|
B|--------10------------10-------------5--------------------|
G|--------10------------10-------------5--------------------|
D|0-0---0----0--8-8---8----8--3-3---3----3------------------|
A|0-0---0----0--8-8---8----8--3-3---3----3------------3-----|
E|0-0---0----0--8-8---8----8--3-3---3----3--7-7-5-6-7---5-3-|
                                  So I hold my breath till my heart ex-

e|--------10------------10---|
B|--------10------------10---|
G|--------10------------10---|
D|0-0---0----0--8-8---8----8-|
A|0-0---0----0--8-8---8----8-|
E|0-0---0----0--8-8---8----8-|
          plodes!          cause

e|--------5----------------------------10------------10---|
B|--------5----------------------------10------------10---|
G|--------5----------------------------10------------10---|
D|3-3---3---3--------------------0---0----0--8-8---8----8-|
A|3-3---3---3------------3-7-6-5-0---0----0--8-8---8----8-|
E|3-3---3---3--7-7-5-6-7---------0---0----0--8-8---8----8-|
    that's how it is and this is how it goes

e|--------5----------------------------10------------10---|
B|--------5----------------------------10------------10---|
G|--------5----------------------------10------------10---|
D|3-3---3---3------------------0-0---0----0--8-8---8----8-|
A|3-3---3---3------------3-----0-0---0----0--8-8---8----8-|
E|3-3---3---3--7-7-5-6-7---5-3-0-0---0----0--8-8---8----8-|
you can steal my body but you can't steal my soul      cause

e|--------5--------------------|
B|--------5--------------------|
G|--------5--------------------|
D|3-3---3---3------------------|
A|3-3---3---3------------3-7-6-|
E|3-3---3---3--7-7-5-6-7-------|
    that's how it is and this is how it goes

e|------------------------------------------------------------------|  X2
B|------------------------------------------------------------------|
G|------------------------------------------------------------------|
D|------------------------------------------------------------------|
A|5-5-5-5-5-5-5-5-5-5-5-5-5-5-5-5-4-4-4-4-4-4-4-4-7-7-7-7-7-7-8-8---|
E|------------------------------------------------------------------|

[Verse]
e|------------------------------------------------------------------|  X3
B|------------------------------------------------------------------|
G|------------------------------------------------------------------|
D|------------------------------------------------------------------|
A|5-5-5-5-5-5-5-5-5-5-5-5-5-5-5-5-4-4-4-4-4-4-4-4-7-7-7-7-7-7-8-8---|
E|------------------------------------------------------------------|

e|----------------------------------------------------------------|
B|----------------------------------------------------------------|
G|----------------------------------------------------------------|
D|----------------------------------------------0-7-7---0-3-3---3-|
A|5-5-5-5-5-5-5-5-5-5-5-5-5-5-5-5-4-4-4-4-4-4-4-0-7-7---0-3-3---3-|
E|----------------------------------------------0-7-7---0-3-3---3-|

[Chorus]
e|--------10------------10-------------5--------------------|
B|--------10------------10-------------5--------------------|
G|--------10------------10-------------5--------------------|
D|0-0---0----0--8-8---8----8--3-3---3----3------------------|
A|0-0---0----0--8-8---8----8--3-3---3----3------------3-----|
E|0-0---0----0--8-8---8----8--3-3---3----3--7-7-5-6-7---5-3-|
                                  So I hold my breath till my heart ex-

e|--------10------------10---|
B|--------10------------10---|
G|--------10------------10---|
D|0-0---0----0--8-8---8----8-|
A|0-0---0----0--8-8---8----8-|
E|0-0---0----0--8-8---8----8-|
          plodes!          cause

e|--------5----------------------------10------------10---|
B|--------5----------------------------10------------10---|
G|--------5----------------------------10------------10---|
D|3-3---3---3--------------------0---0----0--8-8---8----8-|
A|3-3---3---3------------3-7-6-5-0---0----0--8-8---8----8-|
E|3-3---3---3--7-7-5-6-7---------0---0----0--8-8---8----8-|
    that's how it is and this is how it goes

e|--------5----------------------------10------------10---|
B|--------5----------------------------10------------10---|
G|--------5----------------------------10------------10---|
D|3-3---3---3------------------0-0---0----0--8-8---8----8-|
A|3-3---3---3------------3-----0-0---0----0--8-8---8----8-|
E|3-3---3---3--7-7-5-6-7---5-3-0-0---0----0--8-8---8----8-|
you can steal my body but you can't steal my soul      cause

e|--------5--------------------|
B|--------5--------------------|
G|--------5--------------------|
D|3-3---3---3------------------|
A|3-3---3---3------------3-7-6-|
E|3-3---3---3--7-7-5-6-7-------|
    that's how it is and this is how it

[Interlude]
e|--------10------------10-------------5--------------------|
B|--------10------------10-------------5--------------------|
G|--------10------------10-------------5--------------------|
D|0-0---0----0--8-8---8----8--3-3---3----3------------------|
A|0-0---0----0--8-8---8----8--3-3---3----3------------3-----|
E|0-0---0----0--8-8---8----8--3-3---3----3--7-7-5-6-7---5-3-|
      this is       how it        it  goes

e|--------10------------10---|
B|--------10------------10---|
G|--------10------------10---|
D|0-0---0----0--8-8---8----8-|
A|0-0---0----0--8-8---8----8-|
E|0-0---0----0--8-8---8----8-|
      this is       how it

e|--------5----------------------------10------------10---|
B|--------5----------------------------10------------10---|
G|--------5----------------------------10------------10---|
D|3-3---3---3--------------------0---0----0--8-8---8----8-|
A|3-3---3---3------------3-7-6-5-0---0----0--8-8---8----8-|
E|3-3---3---3--7-7-5-6-7---------0---0----0--8-8---8----8-|
      it  goes                    this is       how it

e|--------5----------------------------10------------10---|
B|--------5----------------------------10------------10---|
G|--------5----------------------------10------------10---|
D|3-3---3---3------------------0-0---0----0--8-8---8----8-|
A|3-3---3---3------------3-----0-0---0----0--8-8---8----8-|
E|3-3---3---3--7-7-5-6-7---5-3-0-0---0----0--8-8---8----8-|
      it goes                     this is       how it

e|--------5------------9--9-|
B|--------5-----------10-10-|
G|--------5------------9--9-|
D|3-3---3---3---7-7---11-11-|
A|3-3---3---3---7-7---------|
E|3-3---3---3---7-7---------|
      it  goes

e|5-5-5-5-5-5---5-5-5-5-5-5-5-5--5-5-5-5-5-5---5-5-5-5-5-5-5-5-|
B|6-6-6-6-6-6---6-6-6-6-6-6-6-6--3-3-3-3-3-3---3-3-3-3-3-3-3-3-|
G|7-7-7-7-7-7---7-7-7-7-7-7-7-7--4-4-4-4-4-4---4-4-4-4-4-4-4-4-|
D|-------------------------------------------------------------|
A|-------------------------------------------------------------|
E|-------------------------------------------------------------|

e|5-5-5-5-5-5---5-5-5-5-5-5-5-5--3-3-3-3-3-3---3-3-3-3-3-3-3-3----|   X2
B|3-3-3-3-3-3---3-3-3-3-3-3-3-3--1-1-1-1-1-1---1-1-1-1-1-1-1-1----|
G|3-3-3-3-3-3---3-3-3-3-3-3-3-3--2-2-2-2-2-2---2-2-2-2-2-2-2-2----|
D|----------------------------------------------------------------|
A|----------------------------------------------------------------|
E|----------------------------------------------------------------|

e|5-5-5-5-5-5---5-5-5-5-5-5-5-5--5-5-5-5-5-5---5-5-5-5-5-5-5-5-|
B|6-6-6-6-6-6---6-6-6-6-6-6-6-6--3-3-3-3-3-3---3-3-3-3-3-3-3-3-|
G|7-7-7-7-7-7---7-7-7-7-7-7-7-7--4-4-4-4-4-4---4-4-4-4-4-4-4-4-|
D|-------------------------------------------------------------|
A|-------------------------------------------------------------|
E|-------------------------------------------------------------|
      So  un - -  screw my    head

e|5-5-5-5-5-5---5-5-5-5-5-5-5-5--3-3-3-3-3-3---3-3-3-3-3-3-3-3-|
B|3-3-3-3-3-3---3-3-3-3-3-3-3-3--1-1-1-1-1-1---1-1-1-1-1-1-1-1-|
G|3-3-3-3-3-3---3-3-3-3-3-3-3-3--2-2-2-2-2-2---2-2-2-2-2-2-2-2-|
D|-------------------------------------------------------------|
A|-------------------------------------------------------------|
E|-------------------------------------------------------------|
          And     rinse it out

e|5-5-5-5-5-5---5-5-5-5-5-5-5-5--5-5-5-5-5-5---5-5-5-5-5-5-5-5-|
B|6-6-6-6-6-6---6-6-6-6-6-6-6-6--3-3-3-3-3-3---3-3-3-3-3-3-3-3-|
G|7-7-7-7-7-7---7-7-7-7-7-7-7-7--4-4-4-4-4-4---4-4-4-4-4-4-4-4-|
D|-------------------------------------------------------------|
A|-------------------------------------------------------------|
E|-------------------------------------------------------------|
          Polish    my        thoughts

e|5-5-5-5-5-5---5-5-5-5-5-5-5-5--3-3-3-3-3-3---3-3-3-3-3-3-3-3-|
B|3-3-3-3-3-3---3-3-3-3-3-3-3-3--1-1-1-1-1-1---1-1-1-1-1-1-1-1-|
G|3-3-3-3-3-3---3-3-3-3-3-3-3-3--2-2-2-2-2-2---2-2-2-2-2-2-2-2-|
D|-------------------------------------------------------------|
A|-------------------------------------------------------------|
E|-------------------------------------------------------------|
          Turn    into        doubts

e|5-5-5-5-5-5-5-5-5-5-5-5-5-5-5-5-5-5-5-5-5-5-5-5-5-5-5-5-5-5-5-5-|
B|6-6-6-6-6-6-6-6-6-6-6-6-6-6-6-6-3-3-3-3-3-3-3-3-3-3-3-3-3-3-3-3-|
G|7-7-7-7-7-7-7-7-7-7-7-7-7-7-7-7-4-4-4-4-4-4-4-4-4-4-4-4-4-4-4-4-|
D|----------------------------------------------------------------|
A|----------------------------------------------------------------|
E|----------------------------------------------------------------|
          Un     screw my       head

e|5-5-5-5-5-5-5-5-5-5-5-5-5-5-5-5-3-3-3-3-3-3-3-3-3-3-3-3-3-3-3-3-|
B|3-3-3-3-3-3-3-3-3-3-3-3-3-3-3-3-1-1-1-1-1-1-1-1-1-1-1-1-1-1-1-1-|
G|3-3-3-3-3-3-3-3-3-3-3-3-3-3-3-3-2-2-2-2-2-2-2-2-2-2-2-2-2-2-2-2-|
D|----------------------------------------------------------------|
A|----------------------------------------------------------------|
E|----------------------------------------------------------------|
          And    rinse it       out

e|5-5-5-5-5-5-5-5-5-5-5-5-5-5-5-5-5-5-5-5-5-5-5-5-5-5-5-5-5-5-5-5-|
B|6-6-6-6-6-6-6-6-6-6-6-6-6-6-6-6-3-3-3-3-3-3-3-3-3-3-3-3-3-3-3-3-|
G|7-7-7-7-7-7-7-7-7-7-7-7-7-7-7-7-4-4-4-4-4-4-4-4-4-4-4-4-4-4-4-4-|
D|----------------------------------------------------------------|
A|----------------------------------------------------------------|
E|----------------------------------------------------------------|
          Polish      my        thoughts

e|5-5-5-5-5-5-5-5-5-5-5-5-5-5-5-5-3-3-3-3-3-3-3-------------------|
B|3-3-3-3-3-3-3-3-3-3-3-3-3-3-3-3-1-1-1-1-1-1-1-------------------|
G|3-3-3-3-3-3-3-3-3-3-3-3-3-3-3-3-2-2-2-2-2-2-2-------------------|
D|----------------------------------------------0-7-7---0-3-3---3-|
A|----------------------------------------------0-7-7---0-3-3---3-|
E|----------------------------------------------0-7-7---0-3-3---3-|
          Turn    into          doubts
                                      Turn into       Turn into

[Chorus]
e|--------10------------10-------------5--------------------|
B|--------10------------10-------------5--------------------|
G|--------10------------10-------------5--------------------|
D|0-0---0----0--8-8---8----8--3-3---3----3------------------|
A|0-0---0----0--8-8---8----8--3-3---3----3------------3-----|
E|0-0---0----0--8-8---8----8--3-3---3----3--7-7-5-6-7---5-3-|
                                  So I hold my breath till my heart ex-

e|--------10------------10---|
B|--------10------------10---|
G|--------10------------10---|
D|0-0---0----0--8-8---8----8-|
A|0-0---0----0--8-8---8----8-|
E|0-0---0----0--8-8---8----8-|
          plodes!          cause

e|--------5----------------------------10------------10---|
B|--------5----------------------------10------------10---|
G|--------5----------------------------10------------10---|
D|3-3---3---3--------------------0---0----0--8-8---8----8-|
A|3-3---3---3------------3-7-6-5-0---0----0--8-8---8----8-|
E|3-3---3---3--7-7-5-6-7---------0---0----0--8-8---8----8-|
    that's how it is and this is how it goes

e|--------5----------------------------10------------10---|
B|--------5----------------------------10------------10---|
G|--------5----------------------------10------------10---|
D|3-3---3---3------------------0-0---0----0--8-8---8----8-|
A|3-3---3---3------------3-----0-0---0----0--8-8---8----8-|
E|3-3---3---3--7-7-5-6-7---5-3-0-0---0----0--8-8---8----8-|
you can steal my body but you can't steal my soul      cause

e|--------5------------------------|
B|--------5------------------------|
G|--------5------------------------|
D|3-3---3---3----------------------|
A|3-3---3---3------------3-7-6-5\--|
E|3-3---3---3--7-7-5-6-7---------0-|
    that's how it is and this is how it goes



************************************

| \  Slide down

************************************
Suggest correction
comments
print report bad tab
28 comments total. Showing first comments.
0 reply
passivepunk 10 Apr 25, 2004 08:00 PM

pretty pretty

0 reply
yaridovich60 90 May 18, 2004 08:00 PM

Awesome tab for an awesome Canadian band! :P
Great job dude!

0 reply
Devin T. 35 Jun 20, 2004 08:00 PM

This is an excellent tab - nice work

guest
You may want to rate the tab now too:
select rating
Wanna post a correction for this tab? Suggest correction