Oops, an error
Loading. Please wait.

This Suffering Bass Tab

version 1
version 1
9,571 views 12 this week
2 commentsread comments
1 2 3 4 5
x 5
add to favorites
launch autoscroll
font size
0
reset
guitar tuner
Autoscroll
slow
fast
+/-
esc
set tempo
stop
Help us to improve Ultimate-Guitar.com Take our survey!
×
Author
Difficulty
Tuning
novice
D A D G B E
Tuning: Drop-D
Tabbed by Tony.D (Temp144)

Another new billy talent song of the new album. This is the 4th song
they've released (aside from revisions) of "Billy Talent II". I just 
made a draft after a few listens but I'll probably update it later, 
I just wanted to get the tab out there. The intro sounds a lot like 
"River Below", but then the rest goes emo kinda like "Surrender". 
This song is still exposing their new sound, so it's gonna be bananas 
on June 27. Anyway, Try and Rate it. Long Live Taborama!

Intro:-Part1:x2            
G|-----------------------|
D|-0---------(3-2-0------|  The Brackets are the Guitar Intro
A|---3-0----------3-0-)--|  Alternative on the bass.(Just for Fun)
D|-------5-0-------------|

Part2:x2
G|---------------------------|------------|
D|-0-0-0-00------------------|--0---------| 
A|----------3-3-3-33---------|----3-0-----| 
D|-------------------5-5-5-55|-------5-0--|

Verse- Part1:x2
G|------------------------------------|
D|-0(ring)-----------------0----------|
A|----------3(ring)----------3-0------|
D|-------0(ring)----5-5-5-55------5-0-|

Part2:x2
G|-----------------------------------|
D|-0-0-0-0-----------------0---------|
A|---------3-3-3-3-----------3-0-----|
D|-----------------5-5-5-55------5-0-|

Pre-Chorus:x1
G|-------------------------------------|
D|-------------------------------------|
A|-1(ring)-----------------------33333-|
D|--------0(ring)-5(ring)-3-3-3-3------|

Chorus x1                         Play 8th notes after 2nd time
G|--------------------------------------------------|---------|
D|--------------------------------------------------|---------|
A|-1111111111111-55555555555------------------------|-3(ring)-|
D|--------------------------55555555555-333333333333|---------|

Post Chorus:x Part 2 Intro:x1
Verse-Pt1:x2
      Pt2:x2

Pre-Chorus x1
Chorus:x1
Bridge:x1
G|--------------------------------------|
D|--------------------------------------|
A|-5-5-----0-0------1-1-----------------|
D|----------------------3333333-2222222-|

G|-----------------------------------------------------------|
D|-----------------------------------------------------------|
A|-55-0-55-0-55-0--00--00--00--11--11--11-11-----------------|
D|--------------------2--2--2-----3--3---3---3333333-2222222-|

G|------------------------------------------------------------------------|
D|------------------------------------------------------------------------|
A|-55555555-0-55555555-0000000-0000000-1111111-1111111--------------------|
D|----------------------------2---------------3-------333333333-222222222-|

Post Bridge:x2- Play the post chorus but the 1st time let 
                every note ring then the second time play
                regularly.
Chorus:x3
Outro: Play Intro x1
Suggest correction
comments
print report bad tab
2 comments total.
-1 reply
shoebox_of_lies 2,833 Apr 26, 2006 05:49 PM

hey, did you get this off limewire?

0 reply
auditek 146 Sep 21, 2007 07:40 PM

nice tab. the last bit of the verse is
g-----------
d-3-2-0---0-
a-------3---
d-----------

guest
You may want to rate the tab now too:
select rating
Wanna post a correction for this tab? Suggest correction