Oops, an error
Loading. Please wait.

This Suffering Bass Tab

version 2
version 2
1,365 views 1 this week
no commentswrite comment
1 2 3 4 5
please rate
add to favorites
launch autoscroll
font size
0
reset
guitar tuner
Autoscroll
slow
fast
+/-
esc
set tempo
stop
Help us to improve Ultimate-Guitar.com Take our survey!
×
Author
Difficulty
Tuning
novice
D A D G B E
intro

|-----------------|---------------|
|--intro-guitar---|---------------|
|-----------------|--5-3----------|
|-----------------|------5-3-0----|

|-------------------||-------------------------------------------------|
|-------------------||-------------------------------------------------|
|----5--3-----------||----5-5-5-3-3-3------------------5-3-------------|
|----------5-3-0----||----------------5-5-5-5---------------5-3-0------|x2

verse 1

|---------------------------------------|
|---------------------------------------|
|--5--3----------------5--3-------------|


|---------5-5-5-5--------------5--3--0--|x4

verse 2 after verse 1

|----------------------------------------------------------------|
|----------------------------------------------------------------|
|--1--------------------------------------------3-3-3-3-3-3-3-3--|
|----------0--------5--------3-3-3-3-3-3-3-3---------------------|

chorus


|----------------------------------------------------------------------------------------|
|----------------------------------------------------------------------------------------|
|--1-1-1-1-1-1-1-1-1-------------------------------------------------3-3-3-3-3-3-3-3-----|
|--------------------0-0-0-0-0-0-0-0--5-5-5-5-5-5-5--3-3-3-3-3-3-3-3---------------------|


|-------------------||-------------------------------------------------|
|-------------------||-------------------------------------------------|
|----5--3-----------||----5-5-5-3-3-3------------------5-3-------------|
|----------5-3-0----||----------------5-5-5-5---------------5-3-0------|

verse 1

|---------------------------------------|
|---------------------------------------|
|--5--3----------------5--3-------------|
|---------5-5-5-5--------------5--3--0--|x4

verse 2 after verse 1

|----------------------------------------------------------------|
|----------------------------------------------------------------|
|--1--------------------------------------------3-3-3-3-3-3-3-3--|
|----------0--------5--------3-3-3-3-3-3-3-3---------------------|

chorus


|----------------------------------------------------------------------------------------|
|----------------------------------------------------------------------------------------|
|--1-1-1-1-1-1-1-1-1-------------------------------------------------3-3-3-3-3-3-3-3-----|
|--------------------0-0-0-0-0-0-0-0--5-5-5-5-5-5-5--3-3-3-3-3-3-3-3---------------------|x2


bridge
|------------------------------------------------------|
|--------------2--3------------------------------------|
|--------3---------------------3-3-3-3-----------------|
|---------------------3-3-3-3--------------------------|
Suggest correction
Give kudos to tab author, rate the tab!
1 2 3 4 5
comments
print report bad tab
guest
You may want to rate the tab now too:
select rating
Please do not post tabs as comments. Select "correction" instead!