Oops, an error
Loading. Please wait.

This Suffering Bass Tab

version 3
version 3
522 views 1 this week
no commentswrite comment
1 2 3 4 5
please rate
add to favorites
launch autoscroll
font size
0
reset
guitar tuner
Tab Pro tools
  • play this tab
  • loop segment
  • change instrument
  • show fretboard
  • metronome
×
Best way to learn
"This Suffering"
Autoscroll
slow
fast
+/-
esc
set tempo
stop
Contributor
Difficulty
intermediate
Intro  0:04 X 2

G|---------------|
D|---3-2---------|
A|-------3-2-----|
E|-----------3---|

Verse X 2

G|-------------------------------------------------|
D|-------------------------------------3-2---------|
A|----55-55555---33-33333------------------3-2-----|
E|--------------------------1-1-11111----------3---|

This X 2

G|----------------------------------------|
D|----------------------------3-2---------|
A|----5˜------3˜------------------3-2-----|
E|------------------1-1-11111---------3---|

Verse X 2

G|-------------------------------------------------|
D|-------------------------------------3-2---------|
A|----55-55555---33-33333------------------3-2-----|
E|--------------------------1-1-11111----------3---|

Pre Chorus 

G|-------------------------------------------------------------------------|
D|-------------------------------------------------------------------------|
A|----3-3-3-3-3-3-3-3------------------------------------------------------|
E|--------------------1-1-1-1-1-1-1-1--4-4-4-4-4-4-4-4--9-9-9-9--7-7-7-7---|

Chorus

G|-----------------------------------------------------------------|
D|-----------------------------------------------------------------|
A|----333333333333333-777777777777777------------------------------|
E|------------------------------------444444444444444-66666666-9---|

Verse 

G|-------------------------------------------------|
D|-------------------------------------3-2---------|
A|----55-55555---33-33333------------------3-2-----|
E|--------------------------1-1-11111----------3---|

This X 2

G|----------------------------------------|
D|----------------------------3-2---------|
A|----5˜------3˜------------------3-2-----|
E|------------------1-1-11111---------3---|

Verse X 2

G|-------------------------------------------------|
D|-------------------------------------3-2---------|
A|----55-55555---33-33333------------------3-2-----|
E|--------------------------1-1-11111----------3---|

Pre Chorus 

G|-------------------------------------------------------------------------|
D|-------------------------------------------------------------------------|
A|----3-3-3-3-3-3-3-3------------------------------------------------------|
E|--------------------1-1-1-1-1-1-1-1--4-4-4-4-4-4-4-4--9-9-9-9--7-7-7-7---|









Chorus X 2

G|------------------------------------------------------------------------|
D|------------------------------------------------------------------------|
A|----333333333333333-777777777777777-------------------------------------|
E|------------------------------------444444444444444-66666666-99999999---|

Bridge

G|--------------------------------------------------|
D|--------------------------------------------------|
A|----55----22----33-----6-6-6-6-6-6--4-4-4-4-4-4---|
E|--------------------------------------------------|

G|-----------------------------------------------------------------------------|
D|-----------------------------------------------------------------------------|
A|----66----66----66----66----44----44----44----44----55----55----55----55-----|
E|-------4-----4-----4-----2-----2-----2-----2-----3-----3-----3-----3-----3---|

G|-------------------------------|
D|-------------------------------|
A|----6-6-6-6-6-6--4-4-4-4-4-4---|
E|-------------------------------|

G|-----------------------------------------------------------------------------|
D|-----------------------------------------------------------------------------|
A|----66----66----66----66----44----44----44----44----55----55----55----55-----|
E|-------4-----4-----4-----2-----2-----2-----2-----3-----3-----3-----3-----3---|

G|-----------------------------------|
D|-----------------------------------|
A|----6-6-6-6-6-6--4-4-4-4-4-4--2˜---|
E|-----------------------------------|

G|---------------------------------------------------------------------|
D|---------------------------------------------------------------------|
A|-----------------------------2˜--------------------------------------|
E|----0-----2---2---4---7-------------0-----2---2---4-4-4-4--7-7-7-7---|

Chorus X 3

G|------------------------------------------------------------------------|
D|------------------------------------------------------------------------|
A|----333333333333333-777777777777777-------------------------------------|
E|------------------------------------444444444444444-66666666-99999999---|

End With

G|-------------------------------------------------|
D|-------------------------------------3-2---------|
A|----55-55555---33-33333------------------3-2-----|
E|--------------------------1-1-11111----------3---|
comments
We did not receive enough feedback on this tab! Please rate:
print report bad tab
1 2 3 4 5
I want to post or [tab]
guest
You may want to rate the tab now too:
select rating
Please do not post tabs as comments. Select "correction" instead!