Oops, an error
Loading. Please wait.

This Suffering Bass Tab

version 4
version 4
5,478 views 15 this week
no commentswrite comment
1 2 3 4 5
excellent!
x 6
add to favorites
launch autoscroll
font size
0
reset
guitar tuner
Autoscroll
slow
fast
+/-
esc
set tempo
stop
Help us to improve Ultimate-Guitar.com Take our survey!
×
Author
Song: This Suffering
Artist: Billy Talent
Album: Billy Talent II

Another great song off of their amazing album. It is not hard to play and so I don’t
to say much. The third chorus is a jumble of different parts from the other choruses, so to
confusion, I have simply tabbed it out in full again. All notes are arranged according 
timing so it should be very easy to get the timing right, but post a comment with any
questions. Also, if you want to print this tab, use the font Courier New, size 9, and 
line of tab will be on its own page. Enjoy!

INTRO   (0:  )

G|----------------|----------------|----------------|----------------|
D|----------------|----------------|----------------|0---------------|
A|----------------|----------------|----------------|--3-1-0---------|
D|----------------|----------------|----------------|--------0-------|   x2

G|----------------|----------------|----------------|----------------|
D|----------------|----------------|----------------|0---------------|
A|--5---5-5---5---|--3---3-3---3---|----------------|--3-1-0---------|
D|----------------|----------------|--5---5---5---5-|--------0-------|   x2


VERSE 1   ( :  )

G|----------------|----------------|----------------|----------------|
D|----------------|----------------|----------------|0---------------|
A|5---------------|3---------------|----------------|--3-1-0---------|
D|------------0---|----------------|--5---5---5---5-|--------0-------|   x2

G|----------------|----------------|----------------|----------------|
D|----------------|----------------|----------------|0---------------|
A|--5-5---5-------|--3-3---3-------|----------------|--3-1-0---------|
D|0---------------|0---------------|0-5---5---5---5-|--------0-------|

G|----------------|----------------|----------------|----------------|
D|----------------|----------------|----------------|0---------------|
A|--5-5---5-------|--3-3---3-------|----------------|--3-1-0-----0---|
D|0---------------|0---------------|0-5---5---5---5-|--------0-------|


CHORUS 1   ( :  )

G|----------------|----------------|----------------|----------------|
D|----------------|----------------|----------------|----------------|
A|1~~~~~~~~~~~~~~~|(1)-------------|----------------|----------------|
D|----------------|----------------|0~~~~~~~~~~~~~~~|(0)-------------|

G|----------------|----------------|----------------|----------------|
D|----------------|----------------|----------------|----------------|
A|----------------|----------------|----------------|3-3-3-3-3-3-3-3-|
D|5~~~~~~~~~~~~~~~|(5)-------------|3---3---3---3---|----------------|


G|----------------|----------------|----------------|----------------|
D|----------------|----------------|----------------|----------------|
A|1-1-1-1-1-1-1-1-|1-1-1-1-1-1-1-1-|5-5-5-5-5-5-5-5-|5-5-5-5-5-5-5-5-|
D|----------------|----------------|----------------|----------------|

G|----------------|----------------|----------------|----------------|
D|----------------|----------------|----------------|----------------|
A|----------------|----------------|----------------|3---------------|
D|5-5-5-5-5-5-5-5-|5-5-5-5-5-5-5-5-|3-3-3-3-3-3-3-3-|----------------|


PRE-VERSE   ( :  )

G|----------------|----------------|----------------|----------------|
D|----------------|----------------|----------------|0---------------|
A|--5---5-5---5---|--3---3-3---3---|----------------|--3-1-0---------|
D|----------------|----------------|--5---5---5---5-|--------0-------|


VERSE 2   ( :  )  -> Play verse 1

CHORUS 2   ( :  )  -> Play the first half of chorus 1, then continue to this:


G|----------------|----------------|----------------|----------------|
D|----------------|----------------|----------------|----------------|
A|1-1-1-1-1-1-1-1-|1-1-1-1-1-1-1-1-|5-5-5-5-5-5-5-5-|5-5-5-5-5-5-5-5-|
D|----------------|----------------|----------------|----------------|  \
                                                                        |  x2
G|----------------|----------------|----------------|----------------|  /
D|----------------|----------------|----------------|----------------|
A|----------------|----------------|----------------|3-3-3-3-3-3-3-3-|
D|5-5-5-5-5-5-5-5-|5-5-5-5-5-5-5-5-|3-3-3-3-3-3-3-3-|----------------|


INTERLUDE   ( :  )

G|----------------|----------------|----------------|----------------|
D|----------------|----------------|----------------|----------------|
A|5-5-------------|----------------|0-0-------------|----------------|
D|----------------|----------------|----------------|----------------|

G|----------------|----------------|----------------|----------------|
D|----------------|----------------|----------------|----------------|
A|1-1-------------|----------------|----------------|----------------|
D|----------------|----------------|3-3-3-3-3-3-3-3-|2-2-2-2-2-2-2-2-|


G|----------------|----------------|----------------|----------------|
D|----------------|----------------|----------------|----------------|
A|5-5---0-5-5---0-|5-5---0-5-5-----|0-0-----0-0-----|0-0-----0-0-----|
D|----------------|----------------|------2-------2-|------2---------|

G|----------------|----------------|----------------|----------------|
D|----------------|----------------|----------------|----------------|
A|1-1-----1-1-----|1-1-----1-1-----|----------------|----------------|
D|------3-------3-|------3---------|3-3-3-3-3-3-3-3-|2-2-2-2-2-2-2-2-|


G|----------------|----------------|----------------|----------------|
D|----------------|----------------|----------------|----------------|
A|5-5-5-5-5-5-5-0-|5-5-5-5-5-5-5-3-|0-0-0-0-0-0-0---|0-0-0-0-0-0-0-3-|
D|----------------|----------------|--------------2-|----------------|

G|----------------|----------------|----------------|----------------|
D|----------------|----------------|----------------|----------------|
A|1-1-1-1-1-1-1---|1-1-1-1-1-1-1-3-|----------------|----------------|
D|--------------3-|----------------|3-3-3-3-3-3-3-3-|2-2-2-2-2-2-2-2-|


CHORUS 3   ( :  )

G|----------------|----------------|----------------|----------------|
D|----------------|----------------|----------------|----------------|
A|1~~~~~~~~~~~~~~~|(1)-------------|----------------|----------------|
D|----------------|----------------|0~~~~~~~~~~~~~~~|(0)-------------|

G|----------------|----------------|----------------|----------------|
D|----------------|----------------|----------------|----------------|
A|----------------|----------------|----------------|3---------------|
D|5~~~~~~~~~~~~~~~|(5)-------------|3---------------|----------------|

G|----------------|----------------|----------------|----------------|
D|----------------|----------------|----------------|----------------|
A|1~~~~~~~~~~~~~~~|(1)-------------|----------------|----------------|
D|----------------|----------------|0~~~~~~~~~~~~~~~|(0)-------------|

G|----------------|----------------|----------------|----------------|
D|----------------|----------------|----------------|----------------|
A|----------------|----------------|----------------|3-3-3-3-3-3-3-3-|
D|5~~~~~~~~~~~~~~~|(5)-------------|3---3---3---3---|----------------|


G|----------------|----------------|----------------|----------------|
D|----------------|----------------|----------------|----------------|
A|1-1-1-1-1-1-1-1-|1-1-1-1-1-1-1-1-|5-5-5-5-5-5-5-5-|5-5-5-5-5-5-5-5-|
D|----------------|----------------|----------------|----------------|

G|----------------|----------------|----------------|----------------|
D|----------------|----------------|----------------|----------------|
A|----------------|----------------|----------------|3-3-3-3-3-3-3-3-|
D|5-5-5-5-5-5-5-5-|5-5-5-5-5-5-5-5-|3-3-3-3-3-3-3-3-|----------------|

G|----------------|----------------|----------------|----------------|
D|----------------|----------------|----------------|----------------|
A|1-1-1-1-1-1-1-1-|1-1-1-1-1-1-1-1-|----------------|----------------|
D|----------------|----------------|0-0-0-0-0-0-0-0-|0-0-0-0-0-0-0-0-|  \
                                                                        |  x2
G|----------------|----------------|----------------|----------------|  /
D|----------------|----------------|----------------|----------------|
A|----------------|----------------|----------------|3-3-3-3-3-3-3-3-|
D|5-5-5-5-5-5-5-5-|5-5-5-5-5-5-5-5-|3-3-3-3-3-3-3-3-|----------------|


OUTRO   ( :  )

G|----------------|----------------|----------------|----------------|
D|----------------|----------------|----------------|0---------------|
A|--5---5-5---5---|--3---3-3---3---|----------------|--3-1-0---------|
D|----------------|----------------|--5---5---5---5-|--------0-------|    - :


Symbol Legend:

x2   = Play this section twice
~    = Let note ring
(1)  = Let note ring into next bar


That’s it. Any comments, questions, suggestions or corrections would be appreciated.
Suggest correction
comments
print report bad tab
guest
You may want to rate the tab now too:
select rating
Please do not post tabs as comments. Select "correction" instead!