Oops, an error
Loading. Please wait.

This Suffering Bass Tab

version 5
version 5
661 views 3 this week
no commentswrite comment
1 2 3 4 5
3 more votes to show rating
add to favorites
launch autoscroll
font size
0
reset
guitar tuner
Autoscroll
slow
fast
+/-
esc
set tempo
stop
Help us to improve Ultimate-Guitar.com Take our survey!
×
Author
Difficulty
Tuning
novice
D A D G B E
This is "This Suffering" from "BILLY TALENT II"-the best album ever!!

Intro:

G---------------------------------------------------------------------|I
D-3-2-0---------------------------------------------------------------|I
A-------3-0-------------------------------------------------------I---|  x2
D---------------------------------------------------------------------|I

Second Intro(I used to play the 12's as 5's on the A string,and the 10's as 3's on the A 
I saw BILLY TALENT live..this is how Jon plays it!)

G---------------------------------------------------------------------|I
D---------------------------------3-2-0---------------------------I---|  x2
A----------------------------------------3-0--------------------------|I
D-12-12-1212-10-10-1010-55-5-5-5--------------------------------------|I

Verse:

G---------------------------------------------------------------------|I
D---------------------------------3-2-0---------------------------I---|  x2
A----------------------------------------3-0--------------------------|I
D-12-0-10-0-55-5-5-5--------------------------------------------------|I

G---------------------------------------------------------------------|I
D---------------------------------------------3-2-0---------------I---|  x2
A----------------------------------------------------3-0--------------|I
D-12121212121212121010101010101010-55-5-5-5---------------------------|I

Pre-Chorus:

G-------------------------------------------------------------------|I
D-------------------------------------------------------------------|I
A-1(ring)-------------------------------------33333333--------------|I
D------------0(ring)------5(ring)------3-3-3-3----------------------|I

Chorus:

G--------------------------------------------------------------------|I
D--------------------------------------------------------------------|I
A-11111111111111115555555555555555------------------------3(ring)----|I
D---------------------------------555555555555555533333333-----------|I

Breakdown:

G--------------------------------------------------------------------|I
D--------------------------------------------------------------------|I
A-5-5-----------------000-----------0011-----------------------------|I
D-------------------------------------------3333333322222222---------|I


G--------------------------------------------------------------------|I
D--------------------------------------------------------------------|I
A-55----55--55--5555--------------------11--11--11--1111-------------|I
D----7-----7---7-----77-5-77-5-77-57777----3---3---3-----33333322222-|I

G--------------------------------------------------------------------|I
D--------------------------------------------------------------------|I
A-5555---55555555----------------1111111111111-----------------------|I
D------7-----------777577777777----------------3333333322222222------|I

Pre-Chorus x2
Chorus then the second intro :) as the outro..

That's it :D

There might be small mistakes..just let me know about them ;)
Suggest correction
Give kudos to tab author, rate the tab!
1 2 3 4 5
comments
print report bad tab
guest
You may want to rate the tab now too:
select rating
Wanna post a correction for this tab? Suggest correction