Oops, an error
Loading. Please wait.

Time-Bomb Ticking Away bass

version 1
version 1

Whole song

  • Bass tab for Time-Bomb Ticking Away by Billy Talent. Have fun.

Interactive

175 views 3 this week
3 commentsread comments
1 2 3 4 5
x 3
add to favorites
×
Save as Personal and add changes to this tab that will be seen only by you. Learn more ›
×
You can save this tab as Personal to edit and correct it or add notes. All changes will be seen only by you. Learn more »
launch autoscroll
font size
0
reset
guitar tuner
edit
Autoscroll
slow
fast
+/-
esc
set tempo
stop
About this tab version
Bass tab for Time-Bomb Ticking Away by Billy Talent. Have fun. Was this info helpful? Yes No
00:08 (Verse 1)
G|-------------------------------------------------------------------------------------|
D|---------0---------------------------------------------------------------------------|
A|-2---------------7-------0-----------------------------------------------------------|
D|---------------------------------5-------0-0-2---0-0-2---0-0-2---0-0-2---0-0-2---0-0-|


G|---------------------------------------------------------------------------------|
D|---------------------------------------------------------------------------------|
A|---------------------------------0---0-0-0-0-0-0-------------------------2---2-2-|
D|-4---4-4-4-4-4-4-4---4-4-4-4-4-4-----------------2---2-2-2-2-2-2-0---0-0---------|x3


G|---------------------------------------------------------------------------------|
D|---------------------------------------------------------------------------------|
A|---------------------------------0---0-0-0-0-0-0-------------------------0---0-0-|
D|-4---4-4-4-4-4-4-4---4-4-4-4-4-4-----------------2---2-2-2-2-2-2-0---0-0---------|

00:40
G|--------------------------------------|
D|--------------------------------------|
A|-2------0---------------------------5-|
D|----------------5-------2---2---4-5---|x2


G|-----------------------------------------------------------------|
D|-----------------------------------------------------------------|
A|-2---2-2-2-2-2-2-0---0-0-0-0-0-0-------------------------------5-|
D|---------------------------------5---5-5-5-5-5-0-2---2-2-2-4-5---|


G|-----------------------------------------------------------------|
D|-------------------------------0-2---2-2-2-2-2-0-2---2-2-2-2-2-0-|
A|-0---0-0-0-0-0-0-0---0-0-0-0-2-----------------------------------|
D|-----------------------------------------------------------------|

00:59 (Verse 2)
G|---|
D|---|
A|-2-|
D|---|

01:06
G|-------------------------------------------------------------|
D|---------0---------------------------------------------------|
A|-2---------------7-------0-----------------------------------|
D|---------------------------------5-------0-0-2---0-0-2---0-0-|


G|---------------------------------------------------------------------------------|
D|---------------------------------------------------------------------------------|
A|---------------------------------0---0-0-0-0-0-0-------------------------2---2-2-|
D|-4---4-4-4-4-4-4-4---4-4-4-4-4-4-----------------2---2-2-2-2-2-2-0---0-0---------|x3


G|---------------------------------------------------------------------------------|
D|---------------------------------------------------------------------------------|
A|---------------------------------0---0-0-0-0-0-0-------------------------0---0-0-|
D|-4---4-4-4-4-4-4-4---4-4-4-4-4-4-----------------2---2-2-2-2-2-2-0---0-0---------|

01:37
G|-----------------------------------------------------------------|
D|-----------------------------------------------------------------|
A|-2---2-2-2-2-2-2-0---0-0-0-0-0-0-------------------------------5-|
D|---------------------------------5---5-5-5-5-5-5-2---2-2-2-4-5---|x2


G|-----------------------------------------------------------------|
D|-----------------------------------------------------------------|
A|-2---2-2-2-2-2-2-0---0-0-0-0-0-0-------------------------------5-|
D|---------------------------------5---5-5-5-5-5-5-2---2-2-2-4-5---|


G|-----------------------------------------------------------------|
D|-------------------------------0-2---2-2-2-2-2-0-2---2-2-2-2-2-0-|
A|-0---0-0-0-0-0-0-0---0-0-0-0-2-----------------------------------|
D|-----------------------------------------------------------------|

01:57 (Bridge)
G|---|
D|---|
A|-2-|
D|---|

02:04
G|-------------------------------------------------------------------------------------------------------|
D|---------0-----------------------------------------------0---------------------------------------------|
A|-2---------------7-------0-----------------------2---------------7-------0---------------------------5-|
D|---------------------------------5-------2---------------------------------------5-------2-------4-5---|


G|---------------------------------------------------------------------------|
D|---------0-----------------------------------------------------------------|
A|-2---------------7-------0-----------------------------------------------5-|
D|---------------------------------5-------0-0-2---0-0-2---0-0-2---2---4-5---|

02:27
G|-------------------------------------------------------------------------------------------------|
D|-----------------0---0-0-0-0-0-0-2---2-2-2-2-2-2-------------------------------------------------|
A|-2---2-2-2-2-2-2---------------------------------0---0-0-0-0-0-0-------------------------------5-|
D|-----------------------------------------------------------------5---5-5-5-5-5-0-2---2-2-2-4-5---|x2


G|-------------------------------------------------------------------------------------------------|
D|-------------------------------------------------------------------------------------------------|
A|-2---2-2-2-2-2-2---------------------------------0---0-0-0-0-0-0-------------------------------5-|
D|-----------------0---0-0-0-0-0-0-2---2-2-2-2-2-2-----------------5---5-5-5-5-5-0-2---2-2-2-4-5---|

02:48
G|-------------------------------------------------------------------------------------------------|
D|-----------------0---0-0-0-0-0-0-2---2-2-2-2-2-2-------------------------------------------------|
A|-2---2-2-2-2-2-2---------------------------------0---0-0-0-0-0-0-------------------------------5-|
D|-----------------------------------------------------------------5---5-5-5-5-5-0-2---2-2-2-4-5---|x2


G|-------------------------------------------------------------------------------------------------|
D|-------------------------------------------------------------------------------------------2-0---|
A|-2---2-2-2-2-2-2---------------------------------0---0-0-0-0-0-0-------------------------------0-|
D|-----------------0---0-0-0-0-0-0-2---2-2-2-2-2-2-----------------5---5-5-5-5-5-0-2---2-2-2-------|


G|---------|
D|---------|
A|-2~------|
D|---------|


| ~ ring




            
            
Suggest correction
Creating personal tab
Creating personal tab
You can edit any tab online and save it as your Personal.

You can edit, replace or remove any tab part or add personal notes – all changes will be seen only by you.

Personal tabs can be accessed anytime from any device, even offline.
Learn more »
Give kudos to tab author, rate the tab!
1 2 3 4 5
comments
print report bad tab
3 comments total.
+1 reply
markushein03 126 Feb 18, 2017 09:05 AM

very goo tab!
thanks!

please more bass tabs from this album!

guest
You may want to rate the tab now too:
select rating
Wanna post a correction for this tab? Suggest correction