Oops, an error
Loading. Please wait.

Try Honesty Bass Tab

version 2
version 2

Whole song

Interactive

13,738 views 18 this week
3 commentsread comments
1 2 3 4 5
excellent!
x 7
add to favorites
launch autoscroll
font size
0
reset
guitar tuner
Autoscroll
slow
fast
+/-
esc
set tempo
stop
Help us to improve Ultimate-Guitar.com Take our survey!
×
Contributor
Difficulty
Tuning
novice
D A D G B E
This is what I believe to be the demo version which I prefer over the real version. 
Listen to the song for timing and stuff if you get the right version.
I use brackets to make the tab shorter so it means play the number inside the bracket.

Legend
~ = Let Ring
\ = Slide down
h = hammer-on
^ = Bend down

Guitar intro

Intro x1

G|------------------------------|
D|------------------------------|
A|-22-222222-00-000000----------|
D|---------------------4~----0~-|

G|----------------------|
D|----------------------|
A|-22-222222-00-0000000-|
D|----------------------|

Verse x6

G|-----------------7-7h9-|
D|---------------7-------|
A|----0-2----------------|
D|-4------4-2-0----------|


G|---------------------|
D|---------------------|
A|----0-2--------0-----|
D|-4------4-2-0----0-2-|

Chorus x2 

G|------------------------------------------|
D|-------------------------4----------2-----|
A|-22-222222-00-000000---4---4------2---2---|
D|---------------------4-------4--2-------2-|

Verse x6

Chorus x4

Bridge (best bit ;P)

G|----------------------------|
D|----------------------------|
A|-----------------------2222-| x1
D|-4444^-0000-3333^-0000------|


G|----------------------------|
D|----------------------------| x1
A|------------5-----------2-0-|
D|-4444^-0000---3333^-0000----|


G|-------------------------------------------|
D|-------------------------------------------|
A|-----------------5^--------------------2-0-|  x3
D|-4-4-2-4\7-4-2-0----0--3-3-2-3-5-3-2-0-----|


G|------------------------------------------------|
D|------------------------------------------------|
A|-----------------5^---------5(16x)-2\12~-9~-7-9-|  x1
D|-4-4-2-4\7-4-2-0----0-3(16x)--------------------|

G|-------------------------------|
D|-------------------------------|
A|-14(8x)-12(8x)-9(8x)-7777-9999-| x2
D|-------------------------------|

G|-----------------------------|
D|-----------------------------|
A|-14(8x)-12(8x)-9(8x)-7777-99-| x1
D|-----------------------------|

Chorus x4

Outro

G|-----4-------2-------------------|
D|---4---4---2---2-----4-------2---|
A|-2-------0---------4---4---2---2-| x4
D|----------------4--------2-------|

Ending note
G|-------|
D|-------|
A|-2~\12-| 
D|-------|

The slide isn't in the song it's just to make it sound better =]

I think it's pretty close but leave a comment if you think not.

Good luck =)




comments
print report bad tab
3 comments total.
0 reply
Gibbo_on_bass 15 wrote on February 16 2010, 02:58 pm

In the verse you dont play 2 7's on the g string before you hammer onto the 9, so instead it should go
G|-----------------7h9---|
D|---------------7-------|
A|----0-2----------------|
D|-4------4-2-0----------|

0 reply
SpoonBassist 194 wrote on February 17 2010, 02:29 pm

I play it really fast so it doesn't really sound different to me...Fuuuuck...Not played this song in like a yeaaar

0 reply
coolboy17 114 wrote on January 26 2012, 02:05 am

what is the timing in the verse cause the way I play it doesn't seem to fit

I want to post or [tab]
guest
You may want to rate the tab now too:
select rating
Please do not post tabs as comments. Select "correction" instead!