Oops, an error
Loading. Please wait.

Turn Your Back Bass Tab

version 1
version 1

Whole song

Interactive

3,856 views 1 this week
no commentswrite comment
1 2 3 4 5
please rate
add to favorites
launch autoscroll
font size
0
reset
guitar tuner
Tab Pro tools
  • play this tab
  • loop segment
  • change instrument
  • show fretboard
  • metronome
×
Best way to learn
"Turn Your Back"
Autoscroll
slow
fast
+/-
esc
set tempo
stop
Contributor
Difficulty
Tuning
intermediate
D A D G B E
Turn your back-Billy Talent

INTRO
|-------------------------------------------------|
|-------------------------------------------------|
|------------------5--5-5-0--0-0------------------|
|-2--2-2-0-2-5-2-0---------------5-9-7-5-7--2-2-2-|

|-----------|
|-----------|
|--------5--| X 4
|-2--2-2----|


VERSE
|--------------------------------------------------|
|--------------------------------------------------|
|--------2~-------2~-------------------------------|X 2
|-2~---------------------2~------0-2-2-2-0-2-2-2-0-|


CHORUS
|-----------------------------------------|
|-----------------------------------------|
|-0~--------7~--------5~-------3~---------|X 2
|-----------------------------------------|


VERSE
|-----------------------------------------------------|
|-----------------------------------------------------|
|----------5~---------2--2-2-0--0-0-------------------|
|-2~--------------------------------5-9-7-5-7-2-2-2---|

|-------------|
|-------------|
|--------5----| X 2
|-2--2-2------|


VERSE
|--------------------------------------------------|
|--------------------------------------------------|
|--------2~-------2~-------------------------------|X 2
|-2~---------------------2~------0-2-2-2-0-2-2-2-0-|


CHORUS
|-----------------------------------------|
|-----------------------------------------|
|-0~--------7~--------5~-------3~---------|X 2
|-----------------------------------------|


VERSE
|-----------------------------------------------------|
|-----------------------------------------------------|
|----------5~---------2--2-2-0--0-0-------------------|
|-2~--------------------------------5-9-7-5-7-2-2-2---|

|-------------------------------------------------|
|-------------------------------------------------|
|------------------5--5-5-0--0-0------------------|
|-2--2-2-0-2-5-2-0---------------5-9-7-5-7--2-2-2-|


BRIDGE
|----------------------------------------------|
|----------------------------------------------|
|-9-9-9-9---9-9-9-9---7-7-7-7---7-7-7-7--------|
|----------------------------------------------|

|----------------------------------------------|--------------------|
|----------------------------------------------|-9-9-9-9---9-9-9-9--|
|-5-5-5-5---5-5-5-5---4-4-4-4---4-4-4-4--------|--------------------|
|----------------------------------------------|--------------------|

                                                play this the 1st time


Outro
|-----------------------------------------------------|
|-----------------------------------------------------|
|----------5~---------2--2-2-0--0-0-------------------|x 2
|-2~--------------------------------5-9-7-5-7-2-2-2---|

|-------------------------------------------------|
|-------------------------------------------------|
|------------------5--5-5-0--0-0------------------|x 2
|-2--2-2-0-2-5-2-0---------------5-9-7-5-7--2-2-2-|
comments
We did not receive enough feedback on this tab! Please rate:
print report bad tab
1 2 3 4 5
I want to post or [tab]
guest
You may want to rate the tab now too:
select rating
Please do not post tabs as comments. Select "correction" instead!