Oops, an error
Loading. Please wait.

Turn Your Back Bass Tab

version 2
version 2

Whole song

Interactive

7,629 views 3 this week
1 commentread comment
1 2 3 4 5
excellent!
x 5
add to favorites
launch autoscroll
font size
0
reset
guitar tuner
Autoscroll
slow
fast
+/-
esc
set tempo
stop
Help us to improve Ultimate-Guitar.com Take our survey!
×
Author
Difficulty
Tuning
intermediate
D A D G B E
Tabbed by Tony D (Temp144)
Tuning: Drop D

Nice to play some new BT. 
pretty rough in the pre-chorus and the bridge 
but this is the closest i'll get for now
make corrections and rate it cause you will


Intro:1x
G------------------------------------------------------|
D----------5-------------5-4---------------------------|
A-7-77-5-7---7-5-5-55-0-5----5-2-22-0-0----2-0---------|
D----------------------------------------5-----4-5--22-|

Pre-Verse:1x
G-----------------------------|
D-----------------------------| 
A-7-77-5-7-77-5-7-77-5-7-77-5-|
D-----------------------------|

Verse:2x
G----------------------------------------------------------|
D-----------5-7-9-99-7-9-99-7-9-99-7-9-7-5-----------------|
A-7-77-5-77--------------------------------9-7-77-5-7-77-5-|
D----------------------------------------------------------|


Pre-Chorus:1x
G------------5-7----------------------------------------------|
D-7-77-5-7-7---------------5----------5-----------------------| 
A----------------7-77-5-77---7--5-555---5-2-5--3-33-2-3-2-0-2-|
D-------------------------------------------------------------|

G------------5-7---------------------------------------------------------|
D-7-77-5-7-7---------------5----------5----------------------------------|
A----------------7-77-5-77---7--5-555---5-2-5--3-33-2-3-33-2-3-2-3-2-333-|
D------------------------------------------------------------------------|


Chorus:2x                               Play After 2x
G---------------------------------------|---------|
D---------------------------------------|---------|
A-7(ring)-5(ring)-2(ring)-0(ring)-------|-----333-|
D---------------------------------5-4-2-|-5-4-----|

Pre-Verse:1x
Verse:2x
Pre-Chorus:2x


2nd Chorus:1x
G-----------------------------------------|
D-----------------------------------------| Play 2x
A-7(ring)-5(ring)-2(ring)-0(ring)---------|
D---------------------------------5-4-222-|
                                                 Play After 2x
G------------------------------------------------|--------|
D----------5-------------5-4---------------------|--------| Play 2x
A-7-77-5-7---7-5-5-55-0-5----5-2-22-0-0----------|----333-|
D----------------------------------------5-4-222-|-5-4----|


Bridge:5x                                             Play After 5x
G-----------------------------------------------------|-------------------------------------|
D-----------------------------------------------------|--------------------(slide)77777777--|
A-7777-7777-77-5555-5555-55-3333-3333-33-2222-2-2-3-5-|-0--0--0--0--0-0-0-0---------------7-|
D-----------------------------------------------------|-------------------------------------|

-DRUM BREAK-

2nd Chorus:1x
Outro: Play Intro 1x
Suggest correction
comments
print report bad tab
1 comment total.
0 reply
AnduNeedle 6,827 wrote on September 13 2013, 12:29 pm

Good tab man, but in the begining I would play it like this. Instead of your intro:

Intro:1x
G------------------------------------------------------|
D----------5-------------5-4---------------------------|
A-7-77-5-7---7-5-5-55-0-5----5-2-22-0-0----2-0---------|
D----------------------------------------5-----4-5--22-|

I would play:

Intro:1x
G---------------------------------------------------------|
D---------------------5-4---------------------------------|
A------------5-55-0-5-----5-2-22-0-0----2-0---------------|
D-2-22-02520--------------------------------5-----4-5--22-|

Other than that, killer tab.

guest
You may want to rate the tab now too:
select rating
Wanna post a correction for this tab? Suggest correction