Oops, an error
Loading. Please wait.

Turn Your Back Bass

version 3
version 3

Whole song

Interactive

3,295 views 1 this week
1 commentread comment
1 2 3 4 5
1 last vote to show rating
add to favorites
launch autoscroll
font size
0
reset
guitar tuner
backing track
0:00
0:00
Autoscroll
slow
fast
+/-
esc
set tempo
stop
Tuning
D A D G
"Turn Your Back" bass tabs Billy Talent
by Haxelschnurtz

Drop D

INTRO
|-----------------------------------------------------------------|
|-----------------------------------------------------------------|
|------------------5--5-5-5-5-5--2-2-2-0-0-0----------------------|x 2
|-2—2-2-0-2-5-2-0------------------------------5-9-7-5-5/2-2-2----|

|-----------|
|-----------|
|-----------| X 4
|-2--2-2--0-|


VERSE
|---------------------------------------------------------|
|---------------------------------------------------------|
|--------2~-------2~--------------------------------------|X 2
|-2~---------------------0-2-2-2-0-2-2-2-0-2-2-2-0-2-2-2-0|


CHORUS
|-----------------------------------------|
|-----------------------------------------|
|-0~--------7~--------5~-------3~---------|X 2
|-----------------------------------------|


VERSE
|-------------------------------------------------------|
|-------------------------------------------------------|
|----------5~---------2--2-2-0--0-0---------------------|
|-2~--------------------------------5-9-7-5-5/2-2-2-----|

|--------------|
|--------------|
|--------------| X 4
|-2--2-2--0----|


VERSE
|------------------------------------------|
|------------------------------------------|
|--------2~-------2~-----------------------|X 2
|-2~---------------------0-2-2-2-0-2-2-2-0-|


CHORUS
|-----------------------------------------|
|-----------------------------------------|
|-0~--------7~--------5~-------3~---------|X 2
|-----------------------------------------|


VERSE
|-------------------------------------------------------|
|-------------------------------------------------------|
|----------5~---------2--2-2-0--0-0---------------------|x 2
|-2~--------------------------------5-9-7-5-5/2-2-2-----|

|-----------------------------------------------------------------|
|-----------------------------------------------------------------|
|------------------5--5-5-5-5-5--2-2-2-0-0-0----------------------|x 2
|-2—2-2-0-2-5-2-0------------------------------5-9-7-5-5/2-2-2----|




BRIDGE


|----------------------------------------------|
|----------------------------------------------|
|-7-7-7-7---7-7-7-7---5-5-5-5---5-5-5-5--------|
|----------------------------------------------|

|----------------------------------------------|--------------------|
|----------------------------------------------|-7-7-7-7---7-7-7-7--|
|-3-3-3-3---3-3-3-3---2-2-2-2---2-2-2-2--------|--------------------|
|----------------------------------------------|--------------------|

                                                play this at the ending

Outro
|-----------------------------------------------------|
|-----------------------------------------------------|
|----------5~---------2--2-2-0--0-0-------------------|x1
|-2~--------------------------------5-9-7-5-5/2-2-2---|

|---------------------------------------------------------------|
|---------------------------------------------------------------|
|------------------5--5-5-5-5-5--2-2-2-0-0-0--------------------|x 2
|-2—2-2-0-2-5-2-0------------------------------5-9-7-5-5/2-2-2--|


The rhythm is not perfect but you can figure it out.
Suggest correction
Give kudos to tab author, rate the tab!
1 2 3 4 5
comments
print report bad tab
1 comment total.
0 reply
afflictionemr 10 May 01, 2015 12:11 PM

Lack of accuracy. There are so many missing parts and notes. Even the intro is wrong. this tab seems to need too many corrections.

guest
You may want to rate the tab now too:
select rating
Wanna post a correction for this tab? Suggest correction