Oops, an error
Loading. Please wait.

Viking Death March Bass Tab

version 1
version 1

Whole song

Interactive

13,332 views 1 this week
1 commentread comment
1 2 3 4 5
accurate
x 9
add to favorites
launch autoscroll
font size
0
reset
guitar tuner
Tab Pro tools
  • play this tab
  • loop segment
  • change instrument
  • show fretboard
  • metronome
×
Best way to learn
"Viking Death March"
Autoscroll
slow
fast
+/-
esc
set tempo
stop
Contributor
Difficulty
Tuning
intermediate
D A D G B E
Tabbed by Tony. D
it's hella rough but you'll get the idea.

Intro:2x
G|---------------------------------|
D|-5-5--3--3-3-1---1-1-1-----------|
A|-------5-------3------5----------|
D|-----------------------8-5-5-5-5-|

Chorus:4x             3x   After 4x
G|--------------------|-----|---------|
D|--------------------|-----|---------|
A|--------------------|-----|-3-3-3-3-|
D|-5-5-5-3-3-33-1-1-1-|5555-|---------|

Verse:2x
G|----------------------------------------------|
D|----------------------------------------------|
A|------------------------0-1-1-11-1-1----------|
D|-5-5-55-5-5-55-5-5-55-5--------------3-3-33---|

G|----------------------------------------------------|
D|----------------------------------------------------|
A|-0-1-3-3-33-3-3-33-------------------0-1-5-55555555-|
D|-------------------1-1-11-1-3-5-5-55----------------|

Pre-Chorus:1x
G|-------------------------------------------|
D|-------------------------------------------|
A|-3-3---3--5-5---5--0-1-1-0-1-1-------------|
D|-----5--------7----------------0-1-1-1-1-1-|

Chorus:4x
Verse:2x
Pre-Chorus:1x
Chorus:4x

Bridge:4x        3x             After 4x
G|---------------|--------------|----------------|
D|---------------|-7-10-8-5-7-8-|-7-10-7-8-5-6-7-|
A|-5-5-55-5-5-55-|--------------|----------------|
D|---------------|--------------|----------------|

Verse 2x
Pre-Chorus:1x
Intro:4x
Chorus:8x

Outro:1x
G|------|
D|------|
A|------|
D|-5555-|
comments
print report bad tab
1 comment total.
0 reply
BleachTeetz wrote on March 13 2013, 10:37 am

Hey Great Tab! But I Found:

G|---------------------------------|
D|-5-5--3--3-3-1---1-1-1-----------|
A|-------5-------3------5----------|
D|-----------------------8-5-5-5-5-|

Was Easier To Play As:
G|-----------------------------------|
D|-5-5-3-0-3-3-1---------------------|
A|---------------3-6-6-6-5-----------|
D|-------------------------8-5-5-5-5-|

I want to post or [tab]
guest
You may want to rate the tab now too:
select rating
Please do not post tabs as comments. Select "correction" instead!