Oops, an error
Loading. Please wait.
We have an official Viking Death March tab made by UG professional guitarists. Check out the tab »
×
7,217 views 12 this week
3 commentsread comments
1 2 3 4 5
x 3
add to favorites
×
Save as Personal and add changes to this tab that will be seen only by you. Learn more ›
×
You can save this tab as Personal to edit and correct it or add notes. All changes will be seen only by you. Learn more »
launch autoscroll
font size
0
reset
guitar tuner
edit
Autoscroll
slow
fast
+/-
esc
set tempo
stop
-----------------------------------------------------------------------------
                             Viking Death March - Billy Talent
-----------------------------------------------------------------------------
Tabbed by: Andu Needle
E-mail: sulfur_in_my_lungs@yahoo.com

Intro:

G|--------------------------------------------------------------------|
D|-5-55-3---3-33-1---1-110--------------------------------------------|
A|--------5--------3-------3------------------------------------------|
D|---------------------------5555-------------------------------------|(x2)

G|--------------------------------------------------------------------|
D|--------------------------------------------------------------------|
A|--------------------------------------------------------------------|
D|-5-5555-3-3333-1-1111-5555------------------------------------------|(x3)

G|--------------------------------------------------------------------|
D|--------------------------------------------------------------------|
A|----------------------333-------------------------------------------|
D|-5-5555-3-3333-1-1111-----------------------------------------------|

Verse:

G|--------------------------------------------------------------------|
D|--------------------------------------------------------------------|
A|-----------------------------------------------01-3-3333-3-3333-----|
D|-5-5555-5-5555-5-5555-55-78-8888-8-8888-3-3333----------------------|

G|--------------------------------------------------------------------|
D|--------------------------------------------------------------------|
A|--------------------------------------------------------------------|
D|-1-1111-1-1111-5-5555-5-5555-0-0000-0-0000--------------------------|

You play these 2 parts twice.

Pre chorus:

G|--------------------------------------------------------------------|
D|--------------------------------------------------------------------|
A|-33---3--55---5-110110----------------------------------------------|
D|----5-------7----------1101-1111------------------------------------|

Chorus:

G|--------------------------------------------------------------------|
D|--------------------------------------------------------------------|
A|--------------------------------------------------------------------|
D|-5-5555-3-3333-1-1111-5555------------------------------------------|(x3)

G|--------------------------------------------------------------------|
D|--------------------------------------------------------------------|
A|----------------------333-------------------------------------------|
D|-5-5555-3-3333-1-1111-----------------------------------------------|

Verse 2 is like the first one!
Pre chorus 2 is like the first one!

Chorus 2:

G|--------------------------------------------------------------------|
D|--------------------------------------------------------------------|
A|--------------------------------------------------------------------|
D|-5-5555-3-3333-1-1111-5555------------------------------------------|(x3)

G|--------------------------------------------------------------------|
D|--------------------------------------------------------------------|
A|--------------------------------------------------------------------|
D|-5-5555-3-3333-1-1111-5578------------------------------------------|

Bridge:

The rhyth is tricky, but I'm sure this is the correct way to play it.

G|--------------------------------------------------------------------|
D|--------------------------------------------------------------------|
A|--------------------------------------------------------------------|
D|-0-000040-00000070-00(10)-008-0578----------------------------------|(x4)

Verse 3 is like the others!
Pre chorus 3 is like the others!

Bridge 2:

G|--------------------------------------------------------------------|
D|-5-55-3---3-33-1---1-110--------------------------------------------|
A|--------5--------3-------3------------------------------------------|
D|---------------------------5555-------------------------------------|(x4)

Last chorus:

G|--------------------------------------------------------------------|
D|--------------------------------------------------------------------|
A|--------------------------------------------------------------------|
D|-5-5555-3-3333-1-1111-5555------------------------------------------|(x7)

Ending:

G|--------------------------------------------------------------------|
D|--------------------------------------------------------------------|
A|--------------------------------------------------------------------|
D|-5555---------------------------------------------------------------|

            
            
Suggest correction
Creating personal tab
Creating personal tab
You can edit any tab online and save it as your Personal.

You can edit, replace or remove any tab part or add personal notes – all changes will be seen only by you.

Personal tabs can be accessed anytime from any device, even offline.
Learn more »
Give kudos to tab author, rate the tab!
1 2 3 4 5
comments
print report bad tab
3 comments total.
+1 reply
luca_97 122 Jan 08, 2015 05:44 AM

intro is easier to play if you play:

G|------------------------|
D|-5-55303-33-------------|
A|-----------636-6653-----|
D|-------------------5555-|

0 reply
luca_97 122 Jan 11, 2015 03:02 AM

*edit*
figured it should be:

G|------------------------|
D|-5-55303-33-------------|
A|-----------636-665------|
D|------------------85555-|

(so the last 3 on the A string should be an 8 on the low D string)

guest
You may want to rate the tab now too:
select rating
Wanna post a correction for this tab? Suggest correction